EVA CASSIDY - EARLY MORNING RAIN
Capo: 5
INTRO
G C D Csus2
E -----------------------------------|-----------------------------------|
H --0---------0-----0h1-------1------|--3---------3-------1-------1------|
G --------0-------0-------0-------0--|--------2-------2-------0-------0--|
D ------0-------0-------2-------2----|------0-------0-------0-------0----|
A -----------------------------------|------------------3-------3--------|
E --3-------3-------3-------3--------|--2-------2-------+-------+--------|
G
E -----------------------------------|
H --1p0-------0---------------0------|
G --0-----0-------0-------0-------0--|
D ------0-------0-------0-------0----|
A -----------------------------------|
E --3-------3-------3-------3--------|
1st VERSE
G D
E -----------------------------------|------------2---------------2------|
H ------------0-------0--------------|--------3-------3-------3-------3--|
G --------0-------0-------0----------|------2-------2-------2-------2----|
D ------0-------0-------0------------|--0---------------0----------------|
A --------------------------2---3----|----------0---------------0--------|
E --3-------3-------3-------+--------|--+-------+-------+-------+--------|
In the early morning rain
D Csus2 G
E ------------2----------------------|-----------------------------------|
H --------3-------3-----------1------|--0---------0-----0h1-------1------|
G ------2-------2---------0-------0--|--------0-------0-------0-------0--|
D --0-------------------0-------0----|------0-------0-------2-------2----|
A ----------0-------3-------3--------|-----------------------------------|
E --+-------+-------+-------+--------|--3-------3-------3-------3--------|
with a dollar in my hand
G Am
E -----------------------------------|-----------------------------------|
H --3---------3-------3-------3------|------------1---------------1------|
G --------0-------0-------0-------0--|--------2-------2-------2-------0--|
D ------0-------0-------0-------0----|------2-------2-------2-------0----|
A -----------------------------------|--0---------------0-------2--------|
E --3-------3-------3-------3--------|--+-------0-------+-------+--------|
And an aching in my heart
C Csus2 G
E -----------------------------------|-----------------------------------|
H ------1-----1---------1-----1------|--1p0-------0-----0h1-------1------|
G ------0---------0-----0---------0--|--------0-------0-------0-------0--|
D ------2-------2-------0-------0----|------0-------0-------2-------2----|
A --3-------3-------3-------3--------|-----------------------------------|
E --+-------+-------+-------+--------|--3-------3-------3-------3--------|
and my pockets full of sand
G Am
E -----------------------------------|-----------------------------------|
H --3---------3-----3---------3------|------------1---------------1------|
G --------0-------0-------0-------0--|--------2-------2-------2-------0--|
D ------0-------0-------0-------0----|------2-------2-------2-------0----|
A -----------------------------------|--0---------------0-------2--------|
E --3-------3-------3-------3--------|--+-------0-------+-------+--------|
I'm a long way from home
C Csus2 G
E -----------------------------------|-----------------------------------|
H ------1-----1---------1-----1------|--1p0-------0-----0h1-------1------|
G ------0---------0-----0---------0--|--------0-------0-------0-------0--|
D ------2-------2-------0-------0----|------0-------0-------2-------2----|
A --3-------3-------3-------3--------|-----------------------------------|
E --+-------+-------+-------+--------|--3-------3-------3-------3--------|
and I miss my love one so
G D
E -----------------------------------|------------2---------------2------|
H --3---------3-------3--------------|--------3-------3-------3-------3--|
G --------0-------0-------0----------|------2-------2-------2-------2----|
D ------0-------0-------0------------|--0---------------0----------------|
A --------------------------2---3----|----------0---------------0--------|
E --3-------3-------3-------+--------|--+-------+-------+-------+--------|
In the early morning rain
Csus2 G
E -----------------------------------|-----------------------------------|
H ------------1-------1-------1------|--0---------0-----0h1-------1------|
G --------0-------0-------0-------0--|--------0-------0-------0-------0--|
D ------0-------0-------0-------0----|------0-------0-------2-------2----|
A --3-------3-------3-------3--------|-----------------------------------|
E --+-------+-------+-------+--------|--3-------3-------3-------3--------|
with no place to go
2nd VERSE
Out on runway number nine, big seven-o-seven set to go
But I'm stuck here on the ground where the cold winds blow
You can't jump a jet plane like you can a freight train
So I best be on my way in the early morning rain
BRIDGE
G D
E -----------------------------------|-----------------------------------|
H --3---------3-----3---3---1---0----|--3---------3-------3-------3------|
G --------0-------0------------------|--------2-------2-------2-------2--|
D ------0-------0--------------------|------0-------0-------0-------0----|
A ------------------3----------------|-----------------------------------|
E --3-------3-------+-------+--------|--2-------2-------2-------2--------|
C Csus2 G C
E -----------------------------------|-----------------------------------|
H --1---------1-------1-------1------|--1p0-------0-----0h1-------1------|
G --------0-------0-------0-------0--|--------0-------0-------0-------0--|
D ------2-------2-------0-------0----|------0-------0-------2-------2----|
A --3-------3-------3-------3--------|-----------------------------------|
E --+-------+-------+-------+--------|--3-------3-------3-------3--------|
G Am
E -----------------------------------|-----------------------------------|
H --3---------3-----0h1-0------------|------------1---------------1------|
G --------0-------0---------2-----0--|--------2-------2-------2-------0--|
D ------0-------0--------------------|------2-------2-------2-------0----|
A -----------------------------------|--0---------------0-------2--------|
E --3-------3-------3-------+--------|--+-------0-------+-------+--------|
C G
E ------------------3---------3------|-----------------------------------|
H ------1-----1-----1-----1-------1--|--0---------0-----0h1-------1------|
G ------0---------0-0---0-------0----|--------0-------0-------0-------0--|
D ------2-------2--------------------|------0-------0-------2-------2----|
A --3-------3-------3-------3--------|-----------------------------------|
E --+-------+-------+-------+--------|--3-------3-------3-------3--------|
G Am
E -----------------------------------|-----------------------------------|
H --3---------3-----0h1-0------------|------------1---------------1------|
G --------0-------0---------2-----0--|--------2-------2-------2-------0--|
D ------0-------0--------------------|------2-------2-------2-------0----|
A -----------------------------------|--0---------------0-------2--------|
E --3-------3-------3-------+--------|--+-------0-------+-------+--------|
C G
E ------------------3---------3------|-----------------------------------|
H ------1-----1-----1-----1-------1--|--1p0-------0-----0h1-------1------|
G ------0---------0-0---0-------0----|--------0-------0-------0-------0--|
D ------2-------2--------------------|------0-------0-------2-------2----|
A --3-------3-------3-------3--------|-----------------------------------|
E --+-------+-------+-------+--------|--3-------3-------3-------3--------|
G D
E -----------------------------------|------------2-------2-------0------|
H --3---------3-----3----------------|--------3-------3-------3-------3--|
G --------0-------0-------0----------|------2-------2-------2-------2----|
D ------0-------0-------0------------|--0---------------0----------------|
A --------------------------2---3----|----------0---------------0--------|
E --3-------3-------3-------+--------|--+-------+-------+-------+--------|
C Csus2 G
E -----------------------------------|-----------------------------------|
H ----1-------1-------1-------1------|--1p0-------0-----0h1-------1------|
G --------0-------0-------0-------0--|--------0-------0-------0-------0--|
D ------2-------2-------0-------0----|------0-------0-------2-------2----|
A --3-------3-------3-------3--------|-----------------------------------|
E --+-------+-------+-------+--------|--3-------3-------3-------3--------|
3rd VERSE
Hear the mighty engines roar, see the silver bird on high
She's away and westward bound, for above my home she'll fly
Where the morning rain don't fall and the sun always shine
She'll be flying pass my home in about three hours time
Repeat 1st VERSE
ENDING
G D
E -----------------------------------|------------2---------------2------|
H --3---------3-------3--------------|--------3-------3-------3-------3--|
G --------0-------0-------0----------|------2-------2-------2-------2----|
D ------0-------0-------0------------|--0---------------0----------------|
A --------------------------2---3----|----------0---------------0--------|
E --3-------3-------3-------+--------|--+-------+-------+-------+--------|
In the early morning rain
Csus2 G
E -----------------------------------|-----------------------------------|
H ------------1-------1-------1------|--0---------0-----0h1-------1------|
G --------0-------0-------0-------0--|--------0-------0-------0-------0--|
D ------0-------0-------0-------0----|------0-------0-------2-------2----|
A --3-------3-------3-------3--------|-----------------------------------|
E --+-------+-------+-------+--------|--3-------3-------3-------3--------|
with no place to go
D G Am
E -----------------------------------|-----------------------------------|
H --3---------3-------1-------1------|--1p0-------0-----1---------1------|
G --------2-------2-------0-------0--|--------0-------0-------2-------0--|
D ------0-------0-------0-------0----|------0-------0-------2-------2----|
A ------------------3-------3--------|------------------0-------0--------|
E --2-------2-------+-------+--------|--3-------3-------+-------+--------|
D G
E -----------------------------------|--------------------3--------------|
H ----3-------3-------1-------1------|--3----------------3---------------|
G --------2-------2-------0-------0--|--0---------------0----------------|
D ------0-------0-------0-------0----|-----------------------------------|
A ------------------3-------3--------|-----------------------------------|
E --2-------2-------+-------+--------|--3-------+-------+-------+--------|
-----------------------------------------------------------
This is not the final version. If anyone has additions
or if the tab does not correspond with the original version
please feel free to let me know.
[email protected]
-----------------------------------------------------------


Ваше мнение



Капча