***********************************************************************************************
song: Pare ko
Band: Eraserheads
Tabbed by: shortysphere
***********************************************************************************************
solo:
e:--15^--------------15-15-17b--19-17-15-15h17-15---------------------------------
B:-------12h15-15/17------------------------------17-15-12--10-8---8-8---8-8h10-8-
G:---------------------------------------------------------------9-----9----------
D:--------------------------------------------------------------------------------
A:--------------------------------------------------------------------------------
E:--------------------------------------------------------------------------------
e:-------------------------------10----10-10/12-10/12-10^-----|
B:---8-8h10-8------------8h10-10----10------------------------|
G:-9----------9-7-7--7-9--------------------------------------|
D:------------------------------------------------------------|
A:------------------------------------------------------------|
E:------------------------------------------------------------|
| ^ let ring
| h hammer-on
| / slide up
| b Bend
[email protected]




Ваше мнение



Капча