This is the bass/lead of the song kisapmata by rivermaya hope that you would like this
Sana naman makatulong to sa inyo salamat
Kisapmata
Intro(Lead)
E---5---5-----------5--5----------|
B--3---3---3-3-----3--3---3-3-----|
G-2---2---2-2-x-x-2--2---2-2-x-x--|
D---------------------------------|
A---------------------------------|
E---------------------------------|
Bass
E----------------------------------------------|
B----------------------------------------------|
G----------------------------------------------|
D----------------------------------------------|
A-5-5-5/7-7-7----------5-5-5/7-7-7-------------|
E------------6-6-6/4-4------------6-6-6/4-4----|
D A E G
Nitong umaga lang pagkalambing-lambing
D A E G
Ng yong mga matang hayup kung tumingin
D A E G
Nitong umaga lang pagkagaling-galing
D A E G
Ng yong sumpang walang aawat sa atin
Chorus
D A E G
O kay bilis namang maglaho ng pag-ibig mo sinta
D A E G
Daig mo pa ang isang kisapmata
D A E G
Kanina'y naryan lang o ba't bigla na lang nawala
D A E G(Hold)
Daig mo pa ang isang kisapmata
Bridge:D-A-E-G
Stanza2
D A E G
Kanikanila lang pagkaganda-ganda
D A E G
Ng pagkasabi mong sana'y tayo na nga
D A E G
Kanikanina lang pagkasaya-saya
D A E G
Ng buhay kong bigla na lamang nagiba
(Chorus)
Stanza
D A E G
Nitong umaga lang pagkalambing-lambing
D A E G
Nitong umaga lang pagkagaling-galing
D A E G
Kani-kanina lang pagkaganda-ganda
D A E G(Hold)
Kani-kanina lang pagkasaya-saya
(Chorus)
salamat kina v!nc3nt,n!kk0,JR,jaMES,j!N0 AT [email protected]
Ehem.. flong 2




Ваше мнение



Капча

Рекомендуем