Here is The basic riff threw out the song.
|--x--------------|
|--x--------------|
|---------7-------|
|--x--------------|
|--5--6/7--7------|
|--5--------------| Play 8 times
then the change go's like this
|----7--7-7--7--7-7-7-7-|
|----7----7--7--7-7-7-7-|
|----7----7--7--7-7-7-7-|
|----6----6--6----------|
|----7----7--7----------|
|--7------7-------------| x4
|--7/8-8-8-8-8/7-7-7-7--|
|--7/8-8-8-8-8/7-7-7-7--|
|--7/8-8-8-8-8/7-7-7-7--|
|--6/7-7-7-7-7/6-6-6-6--|
|--7/8-8-8-8-8/7-7-7-7--|
|--7/8-8-8-8-8/7-7-7-7--| got back to main riff,
|--5--5-5-5-5-5---------|
|--5--5-5-5-5-5---------|
|--5--5-5-5-5-5---------|
|--4--4-4-4-4-4---------|
|--5--5-5-5-5-5---------|
|--5--5-5-5-5-5---------|
There are some minor changes to the fingering threw out the song but if you
listen and play along you should be able to get them. I also know the solo but
dont have time to post it right now.




Ваше мнение



Капча

Рекомендуем