#------------------------------------PLEASE NOTE--------------------------------#
# This file is the author's own work and represents their interpretation of the #
# song. You may only use this file for private study, scholarship, or research. #
#-------------------------------------------------------------------------------#
From: Martina [email protected]
A PRAYER-Elisa Toffoli
Album: Lotus 2003
Intro:
G
--//--------------10----------------------10--------------10-----|
----------12--------------12------10--------------10-------------|
------12------12------12------12------12------12------12------12-|
-----------------------------------------------------------------|
-----------------------------------------------------------------|
-----------------------------------------------------------------|
G
------------------10----------------------10--------------10-----|
--10------12--------------12------10--------------10-------------|
------12------12------12------12------12------12------12------12-|
-----------------------------------------------------------------|
-----------------------------------------------------------------|
-----------------------------------------------------------------|
Strofa:
G
------------------10----------------------10--------------10-----|
--10------12--------------12------10--------------10-------------|
------12------12------12------12------12------12------12------12-|
-----------------------------------------------------------------|
-----------------------------------------------------------------|
-----------------------------------------------------------------|
It's
G
------------------10----------------------10--------------10-----|
--10------12--------------12------10--------------10-------------|
------12------12------12------12------12------12------12------12-|
-----------------------------------------------------------------|
-----------------------------------------------------------------|
-----------------------------------------------------------------|
crazy how slow it

G
------------------10----------------------10--------------10-----|
--10------12--------------12------10--------------10-------------|
------12------12------12------12------12------12------12------12-|
-----------------------------------------------------------------|
-----------------------------------------------------------------|
-----------------------------------------------------------------|
goes, when you're
C
------------------10----------------------10--------------10-----|
--10------13--------------13------10--------------10-------------|
------12------12------12------12------12------12------12------12-|
-----------------------------------------------------------------|
-----------------------------------------------------------------|
-----------------------------------------------------------------|
waiting for some thing
G
------------------10----------------------10--------------10-----|
--10------12--------------12------10--------------10-------------|
------12------12------12------12------12------12------12------12-|
-----------------------------------------------------------------|
-----------------------------------------------------------------|
-----------------------------------------------------------------|
more To warm you
F
------------------8-----------------------8---------------8------|
--10------10--------------10------8---------------8--------------|
------10------10------10------10------10------10------10------10-|
-----------------------------------------------------------------|
-----------------------------------------------------------------|
-----------------------------------------------------------------|
up when you feel
G
------------------10----------------------10--------------10-----|
--8-------12--------------12------10--------------10-------------|
------12------12------12------12------12------12------12------12-|
-----------------------------------------------------------------|
-----------------------------------------------------------------|
-----------------------------------------------------------------|
cold, to calm you
F
------------------8-----------------------8---------------8------|
--10------10--------------10------8---------------8--------------|
------10------10------10------10------10------10------10------10-|
-----------------------------------------------------------------|
-----------------------------------------------------------------|
-----------------------------------------------------------------|
down and bring peace to your
G
-----------------10----------------------10--------------10------|
--8-------12--------------12------10--------------10-------------|
------12------12------12------12------12------12------12------12-|
-----------------------------------------------------------------|
-----------------------------------------------------------------|
-----------------------------------------------------------------|
soul
G G C G
It's funny how fast it goes, love comes right when you don't wait anymore
F G F G
Its power takes over all, and you surrender you let go...
Bridge:
Em
------------------7-----------------------7---------------7------|
--10------8---------------8-------8---------------8--------------|
------9-------9-------9-------9-------9-------9-------9--------8-|
-----------------------------------------------------------------|
-----------------------------------------------------------------|
-----------------------------------------------------------------|
Oh this frailty
Em
------------------7-----------------------7---------------7------|
--10------8---------------8-------8---------------8--------------|
------9-------9-------9-------9-------9-------9-------9--------8-|
-----------------------------------------------------------------|
-----------------------------------------------------------------|
-----------------------------------------------------------------|
makes us so
C
------------------7-----------------------7---------------7------|
--10------8---------------8-------8---------------8--------------|
------9-------9-------9-------9-------9-------9-------9--------8-|
-----------------------------------------------------------------|
-----------------------------------------------------------------|
-----------------------------------------------------------------|
strong
Em Em C
Oh.. this fire will melt all the ice
And it's all
F
------------------8-----------------------8---------------8------|
--8-------10--------------10------8---------------8--------------|
------10------10------10------10------10------10------10------10-|
-----------------------------------------------------------------|
-----------------------------------------------------------------|
-----------------------------------------------------------------|
I want, all I

G
------------------8-----------------------8---------------8------|
--10------10--------------10------8---------------8--------------|
------10------10------10------10------10------10------10------10-|
-----------------------------------------------------------------|
-----------------------------------------------------------------|
-----------------------------------------------------------------|
need A prayer of
F G
freedom, a prayer of love.
A prayer of freedom, a prayer of love.
A prayer of freedom, a prayer of love.
Precious gifts, given in silence, look like the pieces of an unsolved puzzle
All to learn, all to know, so unexplained but so beutiful
And yeah, this frailty makes us so strong
And yeah, this fire will melt all the ice
And it's all I want, all I need
A prayer of freedom, a prayer of love.
A prayer of freedom, a prayer of love.
A prayer of freedom, a prayer of love.
So no matter how long I'll wait.
Pain is nothing, but a scale for my will
And there comes a time when truth survives
All kinds of fear, all kinds of lies.
G F G
In a prayer of freedom, a prayer of love...
A prayer for freedom, a prayer for love...
A prayer of freedom, a prayer of love...
A prayer of freedom, a prayer of love...
A prayer of freedom, a prayer of love...
Antro:
Em C Em
A prayer of freedom, a prayer of love...
A prayer of freedom, a prayer of love...
A prayer of freedom, a prayer of love...
A prayer of freedom, a prayer of love...
A prayer for freedom, a prayer of love...
A prayer of freedom, a prayer of love...
A prayer of freedom, a prayer of love...
A prayer for freedom, a prayer for love...
A prayer for freedom, a prayer for love...
A prayer for freedom, a prayer for love...
G
A prayer for love...

G X° tasto
|-1-|---|---|
|-1-|---|-4-|
|---|---|-3-|
|-x-|---|---|
|-x-|---|---|
|-x-|---|---|
F VIII°tasto
|-1-|---|---|
|-1-|---|-4-|
|---|---|-3-|
|-x-|---|---|
|-x-|---|---|
|-x-|---|---|
C X° tasto (strofa)
|-1-|---|---|---|
|-1-|---|---|-4-|
|---|---|-3-|---|
|-x-|---|---|---|
|-x-|---|---|---|
|-x-|---|---|---|
Em VII° tasto
|-1-|---|---|
|---|-2-|---|
|---|---|-3-|
|-x-|---|---|
|-x-|---|---|
|-x-|---|---|
C VIII° tasto (rit.)
|-1-|---|---|
|-1-|---|---|
|---|-2-|---|
|-x-|---|---|
|-x-|---|---|
|-x-|---|---|
Premetto che sicuramente potrebbero esserci degli errori (se potreste comunicarmeli mi
fareste un grande piacere), ma che comunque la tablatura dovrebbe essere abbastanza
corretta. Il ritmo и abbastanza veloce, e proprio per questo potrebbe risultarvi piщ
faticoso da suonare, infatti tutte le note sono da 1/8. Consiglio di suonare il pezzo con
il plettro, anche se puт apparire piщ difficile, per dare piщ scansione al ritmo. Spero
di esservi stata d'aiuto con questa tablatura e che possiate divertirvi suonandola.
Ciao Marti




Ваше мнение



Капча