--------------------------------------------------------------------------
Rubbertooth - Element Eighty
--------------------------------------------------------------------------
Tabbed by: Armando Puente Jr.
Email: [email protected]

Tuning: Drop C (CGCFAD)

Intro

D|----------------------------------------------------------------------|
A|----------------------------------------------------------------------|
F|----------------------------------------------------------------------|
C|0-0-0-0---------------------------------------------------------------|
G|0-0-0-0---------------------------------------------------------------|
C|0-0-0-0---------------------------------------------------------------|
* * * *

Riff 1

D|----------------------------------------------------------------------|
A|----------------------------------------------------------------------|
F|8-9-10-8-11-10----8-9-10-8-11-10--------------------------------------|
C|----------------------------------------------------------------------|
G|----------------------------------------------------------------------|
C|----------------------------------------------------------------------|

Riff 2
Fill
D|-----------------------------|-|--------------------------------------|
A|-----------------------------|-|--------------------------------------|
F|-----------------------------|5|--------------------------------------|
C|0-1-2-0-3-2------------------|h|--------------------------------------|
G|0-1-2-0-3-2------------------|-|--------------------------------------|
C|0-1-2-0-3-2------------------|-|--------------------------------------|
* * * * * *
Riff 2a
Fill
D|----------------------------|-----|-----------------------------------|
A|----------------------------|-----|-----------------------------------|
F|----------------------------|-----|-----------------------------------|
C|0-1-2--0-3-2----------------|5----|-----------------------------------|
G|0-1-2--0-3-2----------------|--5--|-----------------------------------|
C|0-1-2--0-3-2----------------|----5|-----------------------------------|
* * * * * * h h h

Riff 3

D|----------------------------------------------------------------------|
A|----------------------------------------------------------------------|
F|tm8--tm9-tm10---------------------------------------------------------|
C|--------------tm8--tm9-tm10-------------------------------------------|
G|-----------------------------tm8--tm6-tm8-tm8--tm6-tm8----------------|
C|----------------------------------------------------------------------|

Riff 4

D|----------------------------------------------------------------------|
A|----------------------------------------------------------------------|
F|----------------------------------------------------------------------|
C|tm6--tm7-tm9----------------------------------------------------------|
G|--------------tm6--tm7-tm9--------------------------------------------|
C|-----------------------------tm12--tm10-tm12--tm12--tm10-tm12---------|

Riff 5
Fill
D|-------------------------------------------|-----|---------------------|
A|-------------------------------------------|-----|---------------------|
F|-------------------------------------------|-----|---------------------|
C|3-3--9-10--7-7--8-9--10-10-8-10-10-10-8-10-|10~~~|---------------------|
G|3-3--9-10--7-7--8-9--10-10-8-10-10-10-8-10-|-----|---------------------|
C|3-3--9-10--7-7--8-9--10-10-8-10-10-10-8-10-|-----|---------------------|

Riff 6

D|----------------------------------------------------------------------|
A|----------------------------------------------------------------------|
F|-------------8-9-10-8-11-10--------------8-9-10-8-11-10---------------|
C|0-1-2-0-3-2----------------0-1-2-0-3-2--------------------------------|
G|0-1-2-0-3-2----------------0-1-2-0-3-2--------------------------------|
C|0-1-2-0-3-2----------------0-1-2-0-3-2--------------------------------|
* * * * * * * * * * * *

Riff 2
Riff 2a
Riff 3
Riff 4
Riff 5
Outro

D|----------------------------------------------------------------------|
A|----------------------------------------------------------------------|
F|----------------------------------------------------------------------|
C|0-1-2-0-1-2-3-0--------Repeat-----------------------------------------|
G|0-1-2-0-1-2-3-0----------as-------------------------------------------|
C|0-1-2-0-1-2-3-0--------Necessary--------------------------------------|
* * * * * * * *
| / slide up
| slide down
| h harmonic
| p pull-off
| ~ vibrato
| + harmonic
| x Mute note
| * Palm mute
| tm Tremelo picking

Any questions, email.
===============================================================================




Ваше мнение



Капча