Element Eighty- Broken Promises
Tabber - Jacob Hill
Drop C#
the order goes:
intro
main riff/chorus
verse
main riff/chorus
after chorus riff
verse
main riff/ chorus
interlude
verse
main riff/chorus
intro
-------------------------
-------------------------
-------------------------
12-12-12-12-12-12--12----
12-12-12-12-12-12--12----
12-12-12-12-12-12--12----
main riff/ chorus
----------------------------------------------------------------------
----------------------------------------------------------------------
----------------------------------------------------------------------
12-12-12-12-12-12--12--12--12-15--10---8-8-8-8-8-8--8--8--8-12--7-----
12-12-12-12-12-12--12--12--12-15--10---8-8-8-8-8-8--8--8--8-12--7-----
12-12-12-12-12-12--12--12--12-15--10---8-8-8-8-8-8--8--8--8-12--7-----
----------------------------------------------------------------------
----------------------------------------------------------------------
----------------------------------------------------------------------
12-12-12-12-12-12--12--12--12-15--10---8-8-8-8-8-8--8--8--8--7~-------
12-12-12-12-12-12--12--12--12-15--10---8-8-8-8-8-8--8--8--8--7~-------
12-12-12-12-12-12--12--12--12-15--10---8-8-8-8-8-8--8--8--8--7~-------
verse- palm muted
-----------------------------------------------------------------------------
-----------------------------------------------------------------------------
-----------------------------------------------------------------------------
12-12-12-12-12-12--12--12--12-15-15-10-10--8-8-8-8-8-8--8--8--8-12-12-7-7----
12-12-12-12-12-12--12--12--12-15-15-10-10--8-8-8-8-8-8--8--8--8-12-12-7-7----
12-12-12-12-12-12--12--12--12-15-15-10-10--8-8-8-8-8-8--8--8--8-12-12-7-7----
* * * * * * * * * * * * * * * * * * * * * * * * * *
-----------------------------------------------------------------------------
-----------------------------------------------------------------------------
-----------------------------------------------------------------------------
12-12-12-12-12-12--12--12--12-15-15-10-10--8-8-8-8-8-8--7--7--7-12-12-7-7----
12-12-12-12-12-12--12--12--12-15-15-10-10--8-8-8-8-8-8--7--7--7-12-12-7-7----
12-12-12-12-12-12--12--12--12-15-15-10-10--8-8-8-8-8-8--7--7--7-12-12-7-7----
* * * * * * * * * * * * * * * * * * * * * * * * * *
-----------------------------------------------------------------------------
-----------------------------------------------------------------------------
-----------------------------------------------------------------------------
12-12-12-12-12-12--12--12--12-15----10-----8-8-8-8-8-8--8--8--8-12----7------
12-12-12-12-12-12--12--12--12-15----10-----8-8-8-8-8-8--8--8--8-12----7------
12-12-12-12-12-12--12--12--12-15----10-----8-8-8-8-8-8--8--8--8-12----7------
* * * * * * * * * * * * * * * * * *
-----------------------------------------------------------------------------
-----------------------------------------------------------------------------
-----------------------------------------------------------------------------
12-12-12-12-12-12--12--12--12-15----10-----8-8-8-8-8-8--7~-------------------
12-12-12-12-12-12--12--12--12-15----10-----8-8-8-8-8-8--7~-------------------
12-12-12-12-12-12--12--12--12-15----10-----8-8-8-8-8-8--7~-------------------
* * * * * * * * * * * * * * *
after chorus riff.
-------
-------
-7/19--
-------
-5/17--
-------
I couldn't Figure out the Interlude.... Sorry people! but this should get you going!




Ваше мнение



Капча