Element Eighty
~Bloodshot~

Course 2nd
-----------------------------------------------------------------l----l
-----------------------------------------------------------------l----l
-----------------------------------------------------------------l----l
-----------------------------------------------------------------l----l
-00-00-00-0000-3-00-00-00-0000-2-00-00-00-0000-3-00-00-00-00-323-l-0~-l
-00-00-00-0000-3-00-00-00-0000-2-00-00-00-0000-3-00-00-00-00-323-l-0~-l
pm .. .... .. .... .. .... .. .. ...

----------l
----------l
----------l
-3~-/10^~-l
----------l
----------l

Verse
-------------------------------------------------------l
-------------------------------------------------------l
---------------------------------------------------/3^-l
-------------------------------------------------------l
-5555-5-333-3-5555-5-000-0-5555-5-333-3-5555-5-000-----l
-5555-5-333-3-5555-5-000-0-5555-5-333-3-5555-5-000-----l
pm... ... .... ... .... ... .... ...

Pre-Course
--------------------------------------------------------l
--------------------------------------------------------l
---------12-11-12-3-3-2-----------------12-10/12/151515-l
----3-/8-12-11-12-3-3-2-2---------------12-10/12/151515-l
-0~---------------------2-3-0-000-0-0-0-----------------l
-0~-----------------------3-0-000-0-0-0-----------------l
pm ... .

Course 2nd
-----------------------------------------------------------------l----l
-----------------------------------------------------------------l----l
-----------------------------------------------------------------l----l
-----------------------------------------------------------------l----l
-00-00-00-0000-3-00-00-00-0000-2-00-00-00-0000-3-00-00-00-00-323-l-0~-l
-00-00-00-0000-3-00-00-00-0000-2-00-00-00-0000-3-00-00-00-00-323-l-0~-l
pm .. .... .. .... .. .... .. .. ...

----------l
----------l
----------l
-3~-/10^~-l
----------l
----------l

Verse 2
----------------------------------------------------------------l
----------------------------------------------------------------l
----------------------------------------------------------------l
-----------------------------------------7--5--7--2--7--5--7--2-l
-555-33333-555-00000-555-33333-555-00000-5--3--5--0--5--3--5--0-l
----------------------------------------------------------------l
pm......................................

Pre-Course
--------------------------------------------------------l
--------------------------------------------------------l
---------12-11-12-3-3-2-----------------12-10/12/151515-l
----3-/8-12-11-12-3-3-2-2---------------12-10/12/151515-l
-0~---------------------2-3-0-000-0-0-0-----------------l
-0~-----------------------3-0-000-0-0-0-----------------l
pm ... .

Course 2nd
-----------------------------------------------------------------l----l
-----------------------------------------------------------------l----l
-----------------------------------------------------------------l----l
-----------------------------------------------------------------l----l
-00-00-00-0000-3-00-00-00-0000-2-00-00-00-0000-3-00-00-00-00-323-l-0~-l
-00-00-00-0000-3-00-00-00-0000-2-00-00-00-0000-3-00-00-00-00-323-l-0~-l
pm .. .... .. .... .. .... .. .. ...

Solo
-12-0----------------x4------------------------------------------------------l
------12-0--------------/1212/1212/14/1212/1212/10/1212/1212/14/1212/1212/15-l
-----------12-0--------------------------------------------------------------l
----------------12-0---------------------------------------------------------l
-----------------------------------------------------------------------------l
-----------------------------------------------------------------------------l

Course 2
---------------------------------------------------------------------l
---------------------------------------------------------------------l
---------------------------------------------------------------------l
---------------------------------------------------------------------l
-00-00-00-0000-3-00-00-00-0000-2-00-00-00-0000-3-00-00-00-00-3-2-0-2-l
-00-00-00-0000-3-00-00-00-0000-2-00-00-00-0000-3-00-00-00-00-3-2-0-2-l




Ваше мнение



Капча