GRUPO: EL TRI
CANCION: POBRE SOҐADOR ( 3:53 )
( ALEX LORA/FELIPE SOUZA)
CD: 25 AҐOS
* guitarra acustica
C G A A D
No siempre las cosas son como debieran ser ESTE A =e 0
C G A A A D B 1
No siempre se puede tener la razon G 2
C G A A A D D 2
Tu me haces sentir como en un juego de Beisbol A 0
C G A A A E 0
Me ponchas o me haces batear de Homerun mmhm
* empieza bateria, bajo y guitarras
C G D
Tu eres como un sue¤o y yo tan solo soy un pobre so¤ador
C G D
Tu eres como un sue¤o y de ese sue¤o nunca quiero despertar por eso
C G A D
Nunca los ojos quisiera volver a abrir
C G A D
so¤ando asi es como quiero vivir
C G A D
viajando en la noche en la obscuridad
C G A D
eres mi escape de la realidad ahaa

Tu eres como un sue¤o ...
C G A D ( x2 )
armonica solo
e|----------------------------------------------------------------|
B|15-15-15--15-15-15-15--17-13---13-15--13-15-17-15-17-13-15-17-15|
G|-----------------------------15------15-------------------------|
D|----------------------------------------------------------------|
A|----------------------------------------------------------------|
E|----------------------------------------------------------------|
C G D x 2
C G A D x 2
Tu eres como un sue¤o ...
Nunca ya nunca quiero dejar de so¤ar
Que importa si el mundo deja de girar que mas da
Con tigo me pienso escapar de la realidad
Y nunca ya nunca quiero regresar, jamas
nuncaaaaaaaa
* Fin con guitarra acustica ( se repite 3 veces y cada una con
pocas variaciones)
e|-2---3--2--3--------------------------------2--3--2--3--3--|
B|--3---3--3--3----1--0---0-1--3--3--2--1--0---3--3--3--3--3-|
G|----2--2--2--2--------------------------------2--2--2--2--2|
D|-----------------2--0---0-2--4--4--2--2--0-----------------|
A|-----------------------------------------------------------|
E|-----------------------------------------------------------|
Y para que la banda no se equivoque al tocar asi va la tab. pero
hay peque¤as variaciones en cada parte de la canciўn
( Esta parte va cuando dice " Tu eres como un sue¤o ...")
C G D
e|-0--0--0--0--0--0--0-3-3-3-3-3-3--2-2-2-2-0-2-3-0-2-3-2---|
B|-1--1--1--1--1--1--1-3-3-3-3-3-3--3-3-3-3-3-3-3-3-3-3-3---|
G|-0--0--0--0--0--0--0-0-0-0-0-0-0--2-2-2-2-2-2-2-2-2-2-2---|
D|-2--2--2--2--2--2--2-0-0-0-0-0-0--------------------------|
A|-3--3--3--3--3--3--3-2-2-2-2-2-2--------------------------|
E|-3--3--3--3--3--3--3-3-3-3-3-3-3--------------------------|
( " Nunca los ojos ... ")
C G A D
e|-0--3--3--3---0--0--0--0--0--0---2--2--2--3--3--3--2--2--2-|
B|-1--3--3--3---0--1--3--3--1--0---3--3--3--3--3--3--3--3--3-|
G|-0--0--0--0---2--2--2--2--2--2---2--2--2--2--2--2--2--2--2-|
D|-2--0--0--0---2--2--2--2--2--2-----------------------------|
A|-3--2--2---------------------------------------------------|
E|-3--3------------------------------------------------------|
Ahi ta' banda. Como recomendaciўn les digo que cunado Alex canta
"Nunca... " una de las liras toca solo la cuerda B de la parte
acustica de la rola o el final. Bueno cab#@#^%^ ya saben que
yo les mando tablaturas, pero escribeme cab^$%^ no ma$$^%^
pidanme versiones en vivo u originales de las rolas que quieran
o si tienes dura, digo duda escribeme [email protected]
a su cab*%^&$$# Heavy Metedero o Rock n rolero Carlos Mellado.
Y que chin%^^@&%$ a su ma$^%&^ %^& si no me escribes ( No te creas )
Ya sabes si tienes la dicografia del tri mandenmela y una pregunta
Ё Que numero de disco es la colecion de Avandaro version en Ingles
de los Three souls in my mind ? A si quieres de los three souls en
ingles pidelas.
EEEEE L TTTTTTTTTTT RRR I !
E L T R R I !
EEE L T R R I !
E L T R R I !
EEEEE LLLLL T R R I !




Другие песни исполнителя

Las piedras rodantes
Pobre SoУador
Dificil (табы)


Ваше мнение



Капча