EIGHTIES MATCHBOX B-LINE DISASTER
~PYCHOSIS SAFARI~

This is an extension of the previous tab (http://www.geocities.com/onelastchance)

INTRO
e------------------
B------------------
G------------------
D------------------
A-0-0-3-0-0-3-0----etc
E------------------

MAIN RIFF (drink all night)
e----------------------------------
B----------------------------------
G----------------------------------
D----------------------------------
A-0-0-3-0-0-3-0--------------------
E---------------0-0-3-0-0-6-6-6----

CHORUS (heart in my mouth)
e--------------------------------------
B--------------------------------------
G-9-9-9-5-5-5-8-8-8--------------------
D-9-9-9-5-5-5-8-8-8-5-5-5-7-7-7-8-8-8--
A-7-7-7-3-3-3-6-6-6-5-5-5-7-7-7-8-8-8--
E-------------------3-3-3-5-5-5-6-6-6--

AFTER CHORUS RIFF (Gtr 1)
e---------------------------------------------------------------------------
B---------------------------------------------------------------------------
G---------------------------------------------------------------------------
D---------------------------------------------------------------------------
A-7-7-10-7-7-7-10-7-7-7-10-7-7-7-10-7-7--3-3-6-3-3-3-6-3-3-3-6-3-3-3-6-3-3--
E---------------------------------------------------------------------------

AFTER CHORUS RIFF (Gtr 2)
e---------------------------------------------------
B---8-8--8--8-8--8---4-4--4--4-4--4---4-4-4-4-4-4---
G---9-9--9--9-9--9---5-5--5--5-5--5---5-5-5-5-5-5---
D---9-9--9--9-9--9---5-5--5--5-5--5---5-5-5-5-5-5---
A---7-7--7--7-7--7---3-3--3--3-3--3---3-3-3-3-3-3---
E---------------------------------------------------

The solo is based around the high bits on the first chords. I don't know it though!




Ваше мнение



Капча