this is the ONLY version on the internet(i think)!

intro

|----------------|
|----------------|
|----------------|
|-2-1-0----------|
|------0-3-2-1-0-|
|----------------|

main riff

|-----------------------|
|-----------------------|
|-----------------------|
|-2-2-3-2-2-2-3-2-2-2-3-|
|-0-0-0-0-0-0-0-0-0-0-0-| A string palm muted
|-----------------------|

|------|
|-444--|
|----4-| do this when it does does the wierd huming bit
|------|
|------|
|------|

chorous

|----------------------------------|
|----------------------------------|
|----------------------------------|
|-2-2-5-4-2-5!--3!-2-2-5-4-2-4!-5!-|
|-0-0-3-2-0-3!--2!-0-0-3-2-0-2!-3!-|
|----------------------------------|

or if your hanDs arent fast enough to do the top chorous you can do this

|----------------------------------|
|----------------------------------|
|----------------------------------|
|-----------5!--4!-----------4!-5!-|
|-0-0-3-2-0-3!--2!-0-0-3-2-0-2!-3!-|
|----------------------------------|

chorous lick

|-3p2p0------|
|------4-4/1-|
|------------|
|------------|
|------------|
|------------|

verse

chorous

verse

chorous

weird bit:
times 2
|-----------------------------------------|
|-11111-4-2-00000-3-1-44444-7-3-33333-6-2-|
|-----------------------------------------|
|-----------------------------------------|
|-----------------------------------------|
|-----------------------------------------|

guitar solo(ill post that in soon)

chorous

have fun!




Ваше мнение



Капча