Band:Eighties Matchbox Bline Disater
song:chicken
album:horse of the dog
tabbed by:Gaz Flint
E-mail: [email protected]
Ok,i have searched for tabs by the 80s matchbox for hours on the net and all i
could find where the ones on this site.I figured this bit out of chicken,but if
it is not what you want dont blame me cos theres no other versions of it anywhere
on the net, but do feel free to correct it or add in all the other bits that i
have not figured out yet.Also if someone wants to tab the whole thing feel free
to use this as somewhere to start.
tuning:standard E>A>D>G>B>e
intro
gtr1
e---0-0-0-0-0-0-0-0---2-2-2-2-2-2-2-2-----
B---0-0-0-0-0-0-0-0---2-2-2-2-2-2-2-2-----
G---4-4-4-4-4-4-4-4---3-3-3-3-3-3-3-2-----
D---5-5-5-5-5-5-5-5---4-4-4-4-4-4-4-2-----
A---5-5-5-5-5-5-5-5---4-4-4-4-4-4-4-2-----
E---0-0-0-0-0-0-0-0---2-2-2-2-2-2-2-2-----
then after that plays a few times the rest of the band comes in and the 2nd guitar is playin;
gtr2
e------------------------------
B------------------------------
G------------------------------
D------------------------------
A--2-2-2-5-5-5-5-2-2-2-4-4-4-4-
E------------------------------
Thats all for now




Ваше мнение



Капча