Not Ready Yet by the Eels
Off Beautiful Freak.
Tabbed: Mark Lynch ([email protected])
Any additions/corrections let me know.
Capo 7th Fret (kinda awkward without it!)
This is the intro riff, but it's played through most of the song. I'm
not sure what the chords being played are but Em Bm D seems to work.
e |-7-7----------------7----------|
B |-8-8-7--------------8-8-7------|
G |-9-9-7--------------9-----9-7--|
D |-9---9--------------9----------|
A |-7---9----------9-7-7----------|
E |--------7--7h10----------------|
e |-7-7----------------7-7--------|
B |-8-8-7--------------8---8------|
G |-9-9-7--------------9-----9-7--|
D |-9---9--------------9----------|
A |-7---9----------9-7-7----------|
E |--------7--7h10----------------|
A *very* rough jab at the solo
e |-------------------------------|
B |------------10-----------------|
G |------9-11------11-9-----------|
D |-9-12--------------------------|
A |-------------------------------|
E |-------------------------------|
e |--------------------------------|
B |------------10-12-12-10---------|
G |------9-11--------------11 11-9-|
D |-9-12---------------------------|
A |--------------------------------|
E |--------------------------------|

there's a world outside
and i know 'cause i've heard talk
in my sweetest dream
i would go out for a walk
but i don't think i'm ready yet
i'm not feeling up to it now
just not that steady yet
and i don't need you telling me how
there's some happiness
and my stone face cracks again
maybe sometime sooner or later
but i don't think i'm ready yet
i'm not feeling up to it now
just not that steady yet
and i don't need you telling me how
so if i leave my room
don't you tell me to lighten up
maybe sometime sooner or later
but i don't think i'm ready yet
i'm not feeling up to it now
just not that steady yet
and i don't need you telling me how




Ваше мнение



Капча