My Beloved Monster by the Eels
Off Beautiful Freak.
Tabbed: Mark Lynch ([email protected])
Any additions/corrections let me know.
Riff
e |------9----------10---|
B |---10---10----10----10|
G |-9---------11---------|
D |----------------------|
A |----------------------|
E |----------------------|
Sometimes
e |------9----------10---|
B |---10---10----------10|
G |-9---------11~--------|
D |----------------------|
A |----------------------|
E |----------------------|
my beloved monster and me
we go everywhere together
wearing a raincoat that has four sleeves
gets us through all kinds of weather
E D
she will always be the only thing
E D
that comes between me and the awful sting
E D
that comes from living in a world that's so damn mean
my beloved monster is tough
if she wants she will disrobe you
but if you lay her down for a kiss
her little heart it could explode
she will always be the only thing
that comes between me and the awful sting
that comes from living in a world that's so damn
mean
la la la la la la la la
la la la la la la




Ваше мнение



Капча