t. See http://www.olga.net/faq/ for more information. #
Date: Thu, 20 Apr 2000 10:33:14 -0400
From: =?iso-8859-1?q?Simon=20Bobin?=
Subject: e/eels/mr_es_beautiful_blues.crd
Song - Mr eels beautiful blues (written by E)
Band - Eels
Album- Daisies of the Galaxy
Transcribed by - Simon Bobin
I thought it would be a good idea to transcribe this song since it is the best
offering on the new album and there aren't any lyrics in the sleeve because
it's a bonus track. So here it is!
The basic chord sequence is G C D C G throughout the whole song, but the G has
to be played: 320001. Remember, between each verse and chorus line the above
sequence mentioned has to be played.
You can also play this piece of tab over the rhythm guitar if you have two
people playing. Stay upbeat!

Intro
G C D
|-----------------------------------------------------------------------
|--------------0------------------1---------------------3-------------
|-------0---0----0---------0---0-----0-----------2---2-----2----------
|-----------------------------------------------------------------------
|-----------------------------------------------------------------------
|-----------------------------------------------------------------------
|-----------------------------------------------------------------------
C (repeat)
|-----------------------------------------------------------------------
|-----------1-----------------------------------------------------------
|----0---0----0---------------------------------------------------------
|-----------------------------------------------------------------------
|-----------------------------------------------------------------------
|-----------------------------------------------------------------------

1.Verse one
G C D C G (sequence)
The smoke ...
G C D C G
Alone on ..
G C D C G
The yellow...
G C D C G
The ringmasters ..

2.Chorus

G C D C
Uh - huh, ..
G C D C
Uh - huh, ...
3.Verse two
4.Chorus
5.Verse three
6.Chorus
7.Verse four
8. Chorus
9. Verse five
10. Chorus X2
THE END
Any comments, suggestions, feel free to email me!




Ваше мнение



Капча