Eels - Lone Wolf
Following on from JK's tab, I would amend :
--------------3-3---5-5--|
--2-2---5-5---5-5---7-7--|
--4-4---7-7---5-5---7-7--|
--4-4---7-7--------------|
-------------------------|
-------------------------|
I am a lone wolf
repeat until ...
(hold)
--7-7---5-5---3-3---2-2-------------2|
--9-9---7-7---5-5---4-4---2-2-2-2-2-4|
--9-9---7-7---5-5---4-4---2-2-2-2-2-4|
-------------------------------------|
-------------------------------------|
-------------------------------------|
I feel fine I am resigned to this..... I am a lone wolf (back to start)
Enjoy!
Meloz

[email protected]




Ваше мнение



Капча