Eels
Piano
Tab: Gareth Nolan
I WOULD ADVISE USING A CAPO ON 1. ITS LESS PAINFUL.
E||------------------------|------------------------|------------------------|
B||--3--------3--3----1----|--3--------3--3---------|--------3-----3----1----|
G||--3-----3-----3---------|--3-----3-----3---------|--------3-----3---------|
D||-----3--------1---------|-----3--------1----3----|-----3-----3--1---------|
A||--1---------------------|--1---------------------|--1---------------------|
E||------------------------|------------------------|------------------------|
------------------------|------------------------|-----------------------|
--------3-----3----1----|--------3-----3----1----|-------3-----1---------|
--------3-----3---------|--3-----3-----3---------|--3----3-----3---------|
-----3-----3--1---------|-----3-----3--1---------|----------3--1----3----|
--1---------------------|--1---------------------|--1--------------------|
------------------------|------------------------|-----------------------|
3x
--------1-----3----------|-------------------------||---10----------10--13-------------||
--2--------2--------4----|--3--------3--3-----1----||---11------11------15------13-----||
-----1-------------------|--3-----3-----3----------||*------10------------------------*||
--------------------1----|--3-----------3----------||*----------------------15--------*||
--------4--------1-------|--------1--------1-------||----------------------------------||
-----4-------------------|-----1-------------------||----------------------------------||
--------1-----3----------|------------------------|--------1-----3----------|
--2--------2--------4----|--3--------3--3----1----|--2--------2--------4----|
-----1-------------------|--3-----3-----3---------|-----1-------------------|
--------------------1----|--3-----------3----1----|--------------------1----|
--------4--------1-------|------------------------|--------4--------1-------|
-----4-------------------|-----1------------------|-----4-------------------|
3x
|---10----------10--13-------------||------------------------|-----------------------|
|---11------11------15------13-----||--3-----------3----1----|--3-----3-----1--------|
|*------10------------------------*||--3-----3-----3---------|--3-----3-----3--------|
|*----------------------15--------*||-----3-----3------------|-----3-----3-----------|
|----------------------------------||--1---------------------|--1--------------------|
|----------------------------------||------------------------|-----------------------|
------------------------|------------------------|
--3-----3-----3----1----|--------3-----1---------|
--3-----3-----3---------|--3-----3-----3---------|
-----3-----3--1---------|-----3-----3-------3----|
--1---------------------|--1---------------------|
------------------------|------------------------|
--------1-----3----------|------------------------|--------1-----3----------|
--2--------2--------4----|--3--------3--3----1----|--2--------2--------4----|
-----1-------------------|--3-----3-----3---------|-----1-------------------|
-------------------------|--3-----------3----1----|--------------------1----|
--------4--------1--1----|------------------------|--------4--------1-------|
-----4-------------------|-----1------------------|-----4-------------------|
3x
|---10----------10--13-------------||----------------------||
|---11------11------15------13-----||--11--11--------------||
|*------10------------------------*||------10--------------||
|*----------------------15--------*||----------------------||
|----------------------------------||----------------------||
|----------------------------------||----------------------||




Ваше мнение



Капча