----------------------------------------------------------------------------
I like birds - The Eels
----------------------------------------------------------------------------
Tabbed by: Joe
Email: [email protected]

Tuning: EADGBe standard

This is a well easy song to play, it's just this bit all the way through, but a
second guitar backs it up with E & D. I play it by making the D shape but on the
4th fret (000454) then moving down to the regular D then playing the Dsus2. I've
played it with the record and it's in tune, so I'm pretty sure it's correct.

E: 022100
D: x00232
Dsus2: x00220

Intro/verse x2
e|---4-4-4-4-4----2---2-|---4-4-4-4-4----2---2-|
B|---5-5-5-5-5----3---2-|---5-5-5-5-5----3---2-|
G|4--4-5-4-4-4--2-2-2-0-|4--4-5-4-4-4--2-2-2-0-|
D|----------------------|----------------------|
A|----------------------|----------------------|
E|----------------------|----------------------|
I Can't look at the...

Chorus
E D E D
e|---4-4-4-4-4----2---2-|---4-4-4-4-4----2---2-|
B|---5-5-5-5-5----3---2-|---5-5-5-5-5----3---2-|
G|4--4-5-4-4-4--2-2-2-0-|4--4-5-4-4-4--2-2-2-0-|
D|----------------------|----------------------|
A|----------------------|----------------------|
E|----------------------|----------------------|

Here's the lyrics

I can't look at the rocket launch
The trophy wives of the astronauts
And I won't listen to their words
'Cause I like
Birds

I don't care for walkin' down town
Crazy auto car gonna mow me down
Look at all the people like cows in a herd
Well I like
Birds

If you're small
And on a search
I've got a feeder for you to perch on

I can't stand in line at the store
The mean little people are such a bore
But it's all right if you act like a turd
'Cause I like
Birds

If you're small
And on a search
I've got a feeder for you to perch on

If you're small
And on a search
I've got a feeder for you to perch on
I've got a feeder for you to perch on
If you're small
And on a search
I've got a feeder for you to perch on
I've got a feeder for you to perch on

---------------------------------------------------------------------
Anyways, I hope this helps you on your quest 2 play this, Have a nice day!

Visit my website!
http://yobpatrol.mysite.freeserve.com




Ваше мнение



Капча