EELS
--------------------------------
GOING TO YOUR FUNERAL (Part one)
IMPORTANT :
You have to play the C like this : x-3-5-5-5-3--------| or like
this : 8-10-10-11-8-8 BUT not like this : x-3-2-0-1-0-| in the verses.
INTRO: 2nd guitar twice then begin the first guitar WITH the 2nd just once
2nd guitar
e>-------------------------------------------------|
B>-------------------------------------------------|
G>------------------------------2------------------|
D>-------------------------------------------------|
A>-0----0--3---0----0--3--0--3-----3---------------|
E>-------------------------------------------------|
1st guitar
e>--0-----0---0------------------------------------------------------|
B>--------------------4-----4---4-----3------3---3-------1-----1---1-|
G>-----2-----------2------2---------2------2----------2------2-------|
D>-------------------------------------------------------------------|
A>-------------------------------------------------------------------|
E>-------------------------------------------------------------------|
1st VERSE
C B
going to your funeral and feeling i could scream
Bb Am
everything goes away
C B
driving down the highway through the perfect sunny dream
Bb Am
a perfect day for perfect pain
CHORUS
C G Bb F
look at all the people with the flowers in their hands,
C G Bb F
they put the flower on the box that's holding all the sand that was...
C G
that was once...
Bb F C G Bb
that was once youuuuuuuuuu
C B Bb Am (with the 2nd guitar)
2nd VERSE
Honolulu hurricane i knew that you were not insane,
living in the insane world
(enter the 1st guitar)
smiling like it's no big deal scabby wounds that never heal
the woman was only a girl
CHORUS
look at all the people with their heads down in their hands
when everything I'm feeling makes it hard to understand that, uh
what i need to miss it's...
what i need to miss is you
C B Bb Am (with the 2nd guitar)
3rd VERSE (distorted guitar playing like the vocal + thunder sound)
Going to your funeral and feeling like a fool
no ones gonna take the blame,
thinking bout the days of hanging out behind the school
everything goes away.
Chords:
C x35553
B x24442
Bb x13331
Am x02210
G 320033
F 133211
Any corrections : [email protected]




Ваше мнение



Капча