EELS
-------------------------------
ELIZABETH ON THE BATHROOM FLOOR
transcribed by stuart yates ([email protected])
arranged by thibault dauriat
chord shapes:
Asus2 F G F#
E|--7--------8-------10------9---|
B|--10-------10------12------11--|
G|--9--------10------12------11--|
D|--11-------10------12------11--|
A|-------------------------------|
E|-------------------------------|
intro:
Asus2 F
E|-------7-----------7------------8-----------8--|
B|--10-----10-----10---10------10---10-----10----|
G|-----9-------9------------10----------10-------|
D|--11---------11-----------10-------------------|
A|-----------------------------------------------|
E|-----------------------------------------------|
1st VERSE:
Asus2 F
layin' on the bathroom floor
Asus2 F
kitty licks my cheek once more
G
and I
F#
I could try
Asus2 F
but wakin' up is harder when you wanna die
2nd VERSE:
walter's on the telephone
tell him I am not at home
cause I
think that I
am going to a place where I'll be always high
my name's elizabeth
my life is shit and piss
Any corrections : [email protected]


Ваше мнение



Капча