hi
this is the intro from the song
e---------------------------------------------------------------|
b-------------------------------1-------------------------------|
g------5--------0--------2----------2---------------5------0----|
d-3----------0--------2---------------2-------3----------0------|
a---------------------------------------------------------------|
e---------------------------------------------------------------|
e---------0--------------------|
b-----1--------1---------------|
g------------------------------|
d--2---------------2-----------|
a------------------------------|
e------------------------------|
repeat this as many times you like.
I don't know the chords with the chorus
I hope you like it
see ya david (14) from holland




Ваше мнение



Капча