EELS
-------
3 SPEED
INTRO:G and Gmaj7 x4
1st VERSE
G Gmaj7
Got a 3 speed and banana seat
G Gmaj7
Sitting back on the sissy bar
G Gmaj7
Went to Sev and got a drink
G Gmaj7
Wish I was driving in Daddy's car
CHORUS
C D
I looked up at the sky last night
Em A
And I thought I saw a bomb
C(VIII) D(X) G Gmaj7
Why won't you just tell me what's going on
2nd VERSE
Riding down on springhill road
Meeting Alfred out in the woods
Dogs bark and mosquitoes bite
Scratching the itch that makes it feel good
CHORUS
And I looked into the mirror last night
All I saw was a pretty blonde
And why won't you just tell me what's going on
3rd VERSE
Em A
Life is funny but not ha ha funny
C G Gmaj7
Peculiar I guess
Em A
You think i got it all going my way
C(VIII) D(X)
Then why am I such a fucking mess
SOLO with G and Gmaj7 x4
G Gmaj7 G Gmaj7
e>--10b12b10------8b10b8--------7---7/10---------------------|
B>-----------------------------------------------------------|
G>-----------------------------------------------------------|
D>-----------------------------------------------------------|
A>-----------------------------------------------------------|
E>-----------------------------------------------------------|
G Gmaj7 G Gmaj7
e>--------------------------------10b12b10-------------------|
B>-------8---------10---10/12--------------------------------|
G>-7/9-------------------------------------------------------|
D>-----------------------------------------------------------|
A>-----------------------------------------------------------|
E>-----------------------------------------------------------|
b=bend
/=slide
4th VERSE
Want a pony and a birthday cake
Want a party with the scary clown
Kneel down and bow to the princess
Kneel down for the queen of the town
CHORUS
I looked up at the sky last night
And I thought I saw a bomb
G Gmaj7 G
Why won't you just tell me what's going on
Gmaj7 G Gmaj7
tell me what's going on
G Gmaj7 to fade...
CHORDS
G xx5433
Gmaj7 xx4433
C x35553
D x57775
Em x79987
A 577655
C(VIII) 022100 on 8th case
D(X) 022100 on 10th case
Any corrections : [email protected]


Ваше мнение



Капча