t. See http://www.olga.net/faq/ for more information. #
Date: Sun, 17 Oct 1999 18:18:14 -0700 (PDT)
From: Phil Kean
Subject: e/edwin/trippin.tab
Author/Artist: Edwin
Title: Trippin'
Album: Another Spin Around the Sun
Transcribed by: Phil Kean
Email: [email protected]
Tuning: eADGBD (Drop D On High E)
To achieve this tuning you turn the High E
tuning key clockwise until the two strings ( D and
High E ) Sound in harmony
x=Palm muted
^=Harmonics

------------------3p2---------------------------------------------------------
---3---3-----1----3------3---3-----1---3--------------------------------------
---0---0-----2----2------0---0-----2---0--------------------------------------
---2---2-----2--0--------2---2-----2-0-2--------------------------------------
---2-2-2-2-0-------------2-2-2-2-0-----2--------------------------------------
-0---x---x-x-----------0---x---x-x--------------------------------------------
x Verse: x
-----------------3p2----------------------------------------------------------
---3---3-----1---3------3---3-----1---3---------------------------------------
---0---0-----2---2------0---0-----2---4p0-------------------------------------
---2---2-----2-0--------2---2-----2-0-----------------------------------------
---2-2-2-2-0------------2-2-2-2-0---------------------------------------------
-0---x---x-x----------0---x---x-x---------------------------------------------
x x
------------------------------------------------------------------------------
---3---3-----1----------------------------------------------------------------
---0---0-----2----------------------------------------------------------------
---2---2-----2----------------------------------------------------------------
---2-2-2-2-0------------------------------------------------------------------
-0---x---x-x----12-12-12-12-12------------------------------------------------
x Chorus: ^ ^ ^ ^ ^
------------------------------------------------------------------------------
------------------------------------------------------------------------------
---7---5---7-------7---5---7---10-10------------------------------------------
-2-5---3---5-------5---3---5---10-10------------------------------------------
-2-5---3---5---9---5---3---5---8--8-------------------------------------------
-0-5---3---5---7---5---3---5---8--8-------------------------------------------
(after chorus play verse again)This is Played after
Choruses:
--0---------------------------------------------------------------------------
----3-1-0---------------------------------------------------------------------
----------2p0-----------------------------------------------------------------
------------------------------------------------------------------------------
------------------------------------------------------------------------------
------------------------------------------------------------------------------
(After verse play chorus)Then Play this part(Fallin
down)
------------------------------------------------------------------------------
-------3---3------------------------------------------------------------------
-----------0-----2---8---8--2-------------------------------------------------
-2-5-----2---------4--------4-------------------------------------------------
-3---7---3---7-5-------5------------------------------------------------------
------------------------------------------------------------------------------
Than Play Verse. After Verse play Chorus than play
Fallin down... part
Song structure:
Intro
Verse
Chorus
verse
chorus
interlude
half verse
chorus
interlude
outro (the same as interlude pretty much)
That wraps it up... sure was alot put in there
Any corrections or songs you would like to see tabbed
e-mail: [email protected]
Thanks to Shannon for helping me with this one

=====
__________________________________________________
Do You Yahoo!?
Bid and sell for free at http://auctions.yahoo.com





Ваше мнение



Капча