Intro:
B A6
E-|-------------0-----------------0-----------0-----------0-----------0-----
B-|---------4-4---4---4---4-----4---4-----4-4---4-------0---0-------0---0---
G-|-----4-----------4---4-------------4-4---------4---2-------2-2-4-------2-
D-|-------------------------------------------------------------------------
A-|-2-----------------------2-----------------------0-----------------------
E-|-------------------------------------------------------------------------
h
B
|-------0-----------0-----------0-----------0-----------0-----------0-------
|-----0---0-------0---0-------4---4-----4-4---4-------4---4-----4-4---4-----
|---2-------2---2-------2-----------4-4---------4-----------4-4---------4---
|---------------------------------------------------------------------------
|-0-----------0-----------2-----------------------2-------------------------
|---------------------------------------------------------------------------
A6
|-------0-----------0------------0-----------0-----|
|-----0---0-------0---0--------0---0-------0---0---|
|---2-------2-2-4-------2----2-------2---2-------2-|
|--------------------------------------------------|
|-0-----------------------0------------0-----------|
|--------------------------------------------------|
h
I.
B E B
|--------0-----------0-----------0-----------0----------0-----------0-------
|------4---4-----4-4---4-------0---0-------0---0------4---4-----4-4---4-----
|------------4-4---------4---1-------1---1------------------4-4---------4---
|--------------------------------------2------------------------------------
|-2----------------------------------------------2--------------------------
|--------------------------0------------------------------------------------
DM7/Bb G#m7
|-------------------0------| }
|-------7------------------| |
|-----6-----------4--------| |_ Repeat (I)
|---4-----------4----------| | 2x
|--------------------------| |
|-6-----------4------------| }
the strands ...
stop me and ..
emeralds from..
never revealin...
Refrain:
B DM7/Bb G#m7 DM7/Bb
|-------0-----------------------0-----------------| }
|-----4---4---------7-----------------------7-----| |
|---4-------4-----6---6-------4---4-------6---6---| |_ Repeat
|---------------4-------4---4-------4---4-------4-| | 3x
|-2-----------------------------------------------| |
|-------------6-----------4-----------6-----------| }
B DM7/Bb G#m7
|-------0-----------0-----------------------------------0---0-
|-----4---4-----4-4---4---------7-----------7-----------------
|-----------4-4---------4-----6---6-------6---6-------4---4---
|---------------------------4-------4---4-------4---4---------
|-2-----------------------------------------------------------
|-------------------------6-----------6-----------4-----------
F#7
|-------0-----------0-----------0-----|
|---------------------0-----------0---|
|-----4---4-------3-----3-----3-----3-|
|---4-------4---4-----------4---------|
|-------------------------------------|
|-4-----------2-----------2-----------|
tell me ..
dress it ..
i'll be ...
instead of...
Chorus:
B E B
|-------0-----------0-----------0-----------0------------0-----------0------
|-----4---4-------4---4-------0---0-------0---0--------4---4-------4---4----
|---4-------4---4-------4---1-------1---1-------1----4-------4---4-------4--
|-------------4-----------------------2------------------------4------------
|-2------------------------------------------------2------------------------
|-------------------------0-------------------------------------------------
DM7/Bb G#m7
|------------------0-----| }
|-------7----------------| |
|-----6---6------4---4---| |_ Repeat (Chorus)
|---4-------4--4-------4-| | 2x
|------------------------| |
|-6-----------4----------| }
i'll be ..
i'll be ..
and i'll..
i'll be ...
Bridge before II:
B E B
|-------0-----------0-----------0-----------0-----------0-----------0-------
|-----4---4-----4-4---4-------0---0-------0---0-------4---4-------4---4-----
|-----------4-4---------4---1-------1---1-------1-----------4---4-------4---
|-------------------------------------2-----------------------4-------------
|-2-----------------------------------------------2-------------------------
|-------------------------0-------------------------------------------------
DM7/Bb G#m7
|-------------------0------|
|-------7------------------|
|-----6-----------4--------|
|---4-----------4----------|
|--------------------------|
|-6-----------4------------|
II. same as I
rain falls ...
as we lie ...
you're my ...
my love is ..
Repeat Refrain, Chorus
Bridge before Interlude:
B
|-------0-----------0-----------0-----------0-----|
|-----4---4-------4---4-------4---4-------4---4---|
|-----------4---4-------4---4-------4---4-------4-|
|-------------4-----------------------------------|
|-2-----------------------2-----------2-----------|
|-------------------------------------------------|
Interlude:
G#m7 F#7 E E/F#
|-------------------------------0-----------0---------0-----------0-----
|-------4-----------4-------------0-----------0-----0---0-------0---0---
|-----4---4-------4---4-------3-----3-----3-------1-------1-------------
|---4-------4---4-------4---4-----------4---------------------4-------4-
|-----------------------------------------------------------------------
|-4-----------4-----------2-----------2---------0-----------0-----------
E/G# E/F# G#m7 F#7
|-------0-----------0-----------------------------------0-----------0-----
|-----0---0-------0---0---------4-----------4-------------0-----------0---
|-----------------------------4---4-------4---4-------3-----3-----3-----3-
|---6-------6---4-------4---4-------4---4-------4---4-----------4---------
|-------------------------------------------------------------------------
|-0-----------0-----------4-----------4-----------2-----------2-----------
E E/B E E/B A6
|-------0-----------0-----------0-----------0-----------0-----------0-----
|-----0---0-------0---0-------0---0-------0---0-------0---0-------0---0---
|---1-------1---1-------1---1-------1---1-------1---2-------2---2-------2-
|-------------------------------------------------------------------------
|-------------2-----------------------2-----------0-----------0-----------
|-0-----------------------0-----------------------------------------------
F#7
|-------0-----------0-----|
|---------0-----------0---|
|-----3-----3-----3-----3-|
|---4-----------4---------|
|-------------------------|
|-2-----------2-----------|
i've dropped out, burned up, fought my way back from the dead
tuned in, turned on, remembered the things you said
Repeat Chorus 2x
Coda:
B E B
|-------0-----------0-----------0-----------0-----------0-----------0-------
|-----4---4-------4---4-------0---0-------0---0-------4---4-------4---4-----
|-----------4---4-------4---1-------1---1-------1-----------4---4-------4---
|-------------4-----------------------2-----------------------4-------------
|-2-----------------------------------------------2-------------------------
|-------------------------0-------------------------------------------------
DM7/Bb G#m7
|-------------------0------| }
|-------7------------------| |
|-----6-----------4--------| |_ Repeat
|---4-----------4----------| | 2x
|--------------------------| |
|-6-----------4------------| }
B E B
|-------0-----------0-----------0-----------0-----------0-----------0-------
|-----4---4-------4---4-------0---0-------0---0-------4---4-------4---4-----
|-----------4---4-------4---1-------1---1-------1-----------4---4-------4---
|-------------4-----------------------2-----------------------4-------------
|-2-----------------------------------------------2-------------------------
|-------------------------0-------------------------------------------------
DM7/Bb(hold) G#m7(hold) F#7 (hold) B
|------------------------------------0---------------------0------------|
|----------------------------------0---0---------------4-------4------4-|
|---------6-----------4----------3-------3-----------4---4---4---4----4-|
|-----4-----------4------------4-----------4-------4------------------4-|
|----------------------------4-------------------2--------------------2-|
|-6-----------4------------2--------------------------------------------|
The strands in your eyes that color them wonderful
Stop me and steal my breath
Emeralds from mountains thrust towards the sky
Never revealing their depth
Tell me that we belong together Dress it up with the trappings of love
Chorus;
I’ll be your crying shoulder
I’ll be love suicide
I’ll be better when I’m older
I’ll be the greatest fan of your life
Rain falls angry on the tin roof
As we lie awake in my bed
You’re my survival, you’re my living proof
My love is alive and not dead
Tell me that we belong together
Dress it up with the trappings of love
I’ll be captivated, I’ll hang from your lips
Instead of the gallows of heartache that hang from above
Chorus
I’ve dropped out, burned up, fought my way back from the dead
Tuned in, turned on, remembered the thing you said
Chorus


Ваше мнение



Капча