Edwin Mccain - Go Be Young

In this song, one guitar (acoustic) plays the tab, and a distorted electric
guitar plays power chords and such during the intros, pre-choruses and choruses,
and maybe fill in the chords played by an organ during the pre-choruses too
(clean). Have Fun!!

INTRO: (strummed)
Bsus4 C#m7 Asus2 Bsus4/Eb C#m7/E Asus2
e|-0------0------0------------0---------0-------0-----|
b|-0------0------0------------0---------0-------0-----|
g|-4------6------2------------4---------6-------2-----|
D|-4------6------2------------4---------6-------2-----|
A|-2------4------0------------6---------7-------0-----|
E|----------------------------------------------------|

Bsus4 C#m7 Asus2 D6sus2 Asus2 E
e|-0------0------0------------0---------0-------0-----|
b|-0------0------0------------0---------0-------0-----|
g|-4------6------2------------2---------2-------1-----|
D|-4------6------2------------0---------2-------2-----|
A|-2------4------0----------------------0-------2-----|
E|----------------------------------------------0-----|

VERSE:
The same as the first three chords of the intro, but then fingerpicked:

Bsus4 C#m7 Asus2 Asus2
e|----0-------0-------0-------0----|
b|------0-------0-------0-------0--|
g|*--4-------6-------2-------2----*| play this four times
D|*-4-------6-------2-------2-----*|
A|-2-------4-------0-------0-------|
E|---------------------------------|

PRE-CHORUS:
G#m7 F#m7 G#m7 E G#m7 F#m7 Asus2
e|----------------------0-------------------0-------------|
b|-4------2------4------0-----4------2------0-------------|
g|-4------2------4------1-----4------2------2-------------|
D|-4------2------4------2-----4------2------2-------------|
A|----------------------2-------------------0-------------|
E|-4------2------4------0-----4------2--------------------|

CHORUS:
The same as the intro, but now repeat the last chords (D6sus2, Asus2, E).

VERSE: Repeat verse

PRE-CHORUS: Repeat pre-chorus

CHORUS: Again the same as the intro, but now repeat the last three chords
four times, and skip the last E cause then the bridge starts:

BRIDGE:
C#m7 Dsus2 C#m7 Csus2 C#m7 Dsus2 E E
e|-4------5------4------3------4-----5------0-----0----|
b|-5------5------5------3------5-----5------0-----0----|
g|-4------7------4------5------4-----7------1-----1----|
D|-6------7------6------5------6-----7------2-----2----|
A|-4------5------4------3------4-----5------2-----2----|
E|------------------------------------------0-----0----|

OUTRO:
Repeat the chorus, and then play the last three chords fingerpicked
another two times, ending with an Eadd9 chord (024100).




Ваше мнение



Капча