From: [email protected] (Adam C Schneider)
Date: 14 Jun 1995 00:03:20 -0500
Subject: TAB: "Oak Cliff Bra" (Edie Brickell)
OAK CLIFF BRA (Edie Brickell)
-----------------------------
[All the verses have the same guitar part. The C-Cmaj7-Am7-Am9
Section is played one way with the lyrics and another way when
There are no words. For the first verse, I've put the words
Under the tablature.]
C Cmaj7 Am7 Am9
|---------------------------------|---------------------------------|
|1------------0-------------------|1------------0-------------------|
|-----0---------------0-----------|-----0---------------0-----------|
|--------2---------------2--------|--------2---------------2--------|
|3------------3-------------------|0------------0-------------------|
|---------------------------------|---------------------------------|
^ . ^ . ^ . ^ . ^ . ^ . ^ . ^ .
[intro; play twice]
C Cmaj7 Am7 Am9
|---------------------------------|---------------------------------|
|1---------------0----------------|1---------------0----------------|
|-----0---------------0-----------|-----0---------------0-----------|
|--------2---------------2--------|--------2---------------2--------|
|3---------------3----------------|0---------------0----------------|
|---------------------------------|---------------------------------|
^ . ^ . ^ . ^ . ^ . ^ . ^ . ^ .
Sittin' on the front porch in Oak Cliff with my bra
C Cmaj7 Am7 Am9
|---------------------------------|---------------------------------|
|1------------0-------------------|1------------0-------------------|
|-----0---------------0-----------|-----0---------------0-----------|
|--------2---------------2--------|--------2---------------2--------|
|3------------3-------------------|0------------0-------------------|
|---------------------------------|---------------------------------|
^ . ^ . ^ . ^ . ^ . ^ . ^ . ^ .
[no lyrics]
F D G
|1-------------------|2-------------------|--------------------|
|1-------------------|3-------------------|0-------------------|
|2-------------------|2-------------------|0-------------------|
|3-------------------|0-------------------|0-------------------|
|--------------------|--------------------|--------------------|
|--------------------|--------------------|3-------------------|
^ . ^ . ^ . ^ . ^ . ^ . ^ . ^ . ^ . ^ . ^ . ^ .
Watchin' some cars go by
A lady with a baby with only one shoe walks by
Baby on her shoulder has his mouth open more than his eyes
Where's his other shoe?
A little bird is bathing on the driveway in a puddle of old rain
A station wagon honks and swerves and almost hits a squirrel
Squirrel gets crazy-eyed and zippers back and forth across the pavement
Talk about close calls

==-=--=---=----=-----=-------=--------=--------=-------=-----=----=---=--=-==
Adam Schneider [email protected] Minneapolis, MN
If you want guitar chords for Mary Chapin Carpenter, Indigo Girls,
Mary Karlzen, Nanci Griffith, etc., go to my World Wide Web page:
Http://www.umn.edu/nlhome/m161/schn0170/acs.html
==-=--=---=----=-----=-------=--------=--------=-------=-----=----=---=--=-==




Ваше мнение



Капча