E: 24 Mar 1998 09:53:58 Z
From: "Boulton, Nic"
Subject: CRD: /b/Brickell_Edie/In_the_bath.crd
/b/Brickell_Edie/In_the_bath.crd
From Picture Perfect Morning
[intro]:
E(VII) A(VII)
E ------------7---------9--7-----------
B -------9-10--------10)------10-------
G -----9)-----------9------------------
D ----9-----------(7-------------------
A --(7---------------------------------
E -------------------------------------
E(VII) A(VII)
E ------------7------------------------
B -------9-10---------10--9--7---9-7---
G -----9)-----------9)---------------9-
D ----9-----------(7-------------------
A --(7---------------------------------
E -------------------------------------
E A
In the morning in the bath
E A
Water pouring from the taps
C D E
I don't want to go out lie back, relax
E A
Ever lazy ever never free
E A
What my conscience does to me
C D E
Always something I should do, someone I should be
A E C D
G D Am
Run around, put me down if you want to
G D Am
I can't hear a sound coz I'm not listening to you
G D Am
I've taken today to be off and away




Ваше мнение



Капча