Date: Sun, 10 Sep 95 22:56:51 -0500
From: Adam C Schneider
Subject: /b/edie_brickell/ghost_of_a_dog.tab
GHOST OF A DOG (Edie Brickell)
------------------------------
[Tune your low E string down to D.]
D(9) D(9)/C
E ----------0-|------------|----------0-|------------|
B ------3-----|3---------3-|------3-----|3---------3-|
G --------2---|------2-----|--------2---|------2-----|
D 0-----------|--------0---|------------|------------|
A ------------|------------|3-----------|--------3---|
D ------------|------------|------------|------------|
^ . . ^ . . ^ . . ^ . . ^ . . ^ . . ^ . . ^ . .
[intro]
Bm7(4) D(9)
E ----------0-|------------|------2=0---|------------|
B ------3-----|3---------3-|----------3-|------------|
G --------2---|------2-----|------------|2---2-----2-|
D ------------|------------|------------|--0-----0---|
A 2-----------|--------2---|------------|------------|
D ------------|------------|0-----------|------0-----|
^ . . ^ . . ^ . . ^ . . ^ . . ^ . . ^ . . ^ . .
[intro]
D(9) D(9)/C
E ------------|0---------0-|------------|0-----------|
B ------------|----3-------|------3-----|----3-----3-|
G ------------|------2-----|------------|------2-----|
D ------------|--------0---|------------|------------|
A ------------|------------|3---------3-|--------3---|
D 0-----------|------------|------------|------------|
^ . . ^ . . ^ . . ^ . . ^ . . ^ . . ^ . . ^ . .
How can that dog be barking in the back yard
Bm7(4) D(9)
E ------------|0-----------|------------|0-----------|
B ------3-----|----3-----3-|------3-----|----3-------|
G ------------|------2-----|--------2---|------2-----|
D ------------|------------|0---------0-|----------0-|
A 2---------2-|--------2---|------------|--------0---|
D ------------|------------|------------|------------|
^ . . ^ . . ^ . . ^ . . ^ . . ^ . . ^ . . ^ . .
We ran over him years ago
D(9) D(9)/C
E ------------|0---------0-|------------|0-----------|
B ------------|----3-------|------3-----|----3-----3-|
G ------------|------2-----|------------|------2-----|
D ------------|--------0---|------------|------------|
A ------------|------------|3---------3-|--------3---|
D 0--------0--|------------|------------|------------|
^ . . ^ . . ^ . . ^ . . ^ . . ^ . . ^ . . ^ . .
How can that dog be running by the back fence
Bm7(4) D(9)
E ------------|0-----------|------------|0-----------|
B ------------|----3-----3-|------3-----|----3-----3-|
G ------------|------2-----|--------2---|------2-----|
D ------------|------------|0---------0-|--------0---|
A 2-----------|--------2---|------------|------------|
D ------------|------------|------------|------------|
^ . . ^ . . ^ . . ^ . . ^ . . ^ . . ^ . . ^ . .
We ran over him years agho--ost of a dog
D(9)/C G D(9)
E ------------|0-----------|-------|-------|------------|------0-----|
B ------3-----|----3-----0-|0------|-------|------3-----|3-------3---|
G --------2---|------2-----|0------|-------|--------2---|--2-------2-|
D ------------|------------|-------|-------|----------0-|------------|
A 3---------3-|--------3---|-------|-------|------------|----0-------|
D ------------|------------|5------|-------|------------|------------|
^ . . ^ . . ^ . . ^ . . ^.. ^.. ^.. ^.. ^ . . ^ . . ^ . . ^ . .
Barking in the back yard
D(9) D(9)/C
E ------------|0---------0-|------------|0---------0-|
B ------------|----3-------|------3-----|----3-------|
G ------------|------2-----|------------|------2-----|
D 0-----------|--------0---|------------|------------|
A ------------|------------|3-----------|--------3---|
D ------------|------------|------------|------------|
^ . . ^ . . ^ . . ^ . . ^ . . ^ . . ^ . . ^ . .
How can that dog be scratching at the back door
Bm7(4) D(9)
E ------------|0-----------|------------|0-----------|
B ------3-----|----3-----3-|------3-----|--3---------|
G --------2---|------2-----|--------2---|----2-------|
D ----------0-|------------|0---------0-|------0---0-|
A 2-----------|--------2---|------------|--------0---|
D ------------|------------|------------|------------|
^ . . ^ . . ^ . . ^ . . ^ . . ^ . . ^ . . ^ . .
We ran over him years ago
D(9) D(9)/C
E ------------|0-----------|------------|2=0-------0-|
B ------3-----|----3-----3-|------3-----|----3-------|
G ------------|------2-----|--------2---|------0-----|
D ------------|--------0---|------------|--------0---|
A ------------|------------|3---------3-|------------|
D 0-----------|------------|------------|------------|
^ . . ^ . . ^ . . ^ . . ^ . . ^ . . ^ . . ^ . .
How can that dog be lying under that shady tree
G6/B D(9)
E ------------|0---------0-|------------|0-----------|
B ------3-----|----3-------|------3-----|----3-----3-|
G --------0---|------0-----|--------2---|------2-----|
D ------------|--------0---|0---------0-|--------0---|
A 2---------2-|------------|------------|------------|
D ------------|------------|------------|------------|
^ . . ^ . . ^ . . ^ . . ^ . . ^ . . ^ . . ^ . .
Where we buried him years agho--ost of a dog
D(9)/C G D
E ------------|0-----------|------------|------------|------------||
B ------3-----|----3-------|------------|------------|------------||
G --------2---|------2-----|0-----------|------------|------------||
D ------------|------------|0-----------|------------|0-----------||
A 3---------3-|------------|------------|------------|------------||
D ------------|------------|5-----------|------------|------------||
^ . . ^ . . ^ . . ^ . . ^ . . ^ . . ^ . . ^ . . ^
Flying through the back yard

- Adam Schneider, [email protected]




Ваше мнение



Капча