/////////////////////////
< Title: Wake up the king >
< Artist: Edguy >
< Album: Theater of salvation >
< >
< Trancribed by: Niklas Lehto >
< >
< Send your comments, suggestion e.t.c to: >
< [email protected] >
< http://www.sarctica.cjb.net >
/////////////////////////
*Disable word wrap under edit to view this document correctly!
h = hammer on . = Palm mute
p = pull off A.H = Artificial harmonics
b = Bend pb = prebend
r = release bend s = slide
All guitars are probably 1/2 downed, but I trancribed it
in original tuning and I'm too lazy to correct it.
[Intro:]
D5 C5 G5 B5 E5 D5 G5
e||----|--------|--------|------|----|----------|-----|------|
B||----|--------|--------|------|----|----------|-----|------|
G||----|--------|--------|------|----|----------|-----|------|
D||7---|----9---|--------|------|9---|----------|7----|------|
A||5---|----7---|7-------|----9-|7---|----------|5----|7-----|
E||----|--------|5-------|----7-|----|----------|-----|5-----|
|| A.H |
e||----|--------|--------|------|----|----------|-----|------|
B||7---|----7b8-|5-------|----7-|8---|8b10----8-|7----|5-----|
G||----|--------|--------|------|----|----------|-----|------|
D||----|--------|--------|------|----|----------|-----|------|
A||----|--------|--------|------|----|----------|-----|------|
E||----|--------|--------|------|----|----------|-----|------|
|| A.H |
e||----|--------|--------|------|----|----------|-----|------|
B||----|--------|--------|------|----|----------|-----|------|
G||7---|----7b9-|6-------|----7-|9---|9b11----9-|7----|6-----|
D||----|--------|--------|------|----|----------|-----|------|
A||----|--------|--------|------|----|----------|-----|------|
E||----|--------|--------|------|----|----------|-----|------|
Repeat once.
e||---------------|--------|--------|------|----|----------|-----|------|
B||---------------|--------|--------|------|----|----------|-----|------|
G||---------------|--------|--------|------|----|----------|-----|------|
D||-----5-4---5---|4h5p4-2-|--------|------|----|----------|-----|------|
A||---------------|--------|--------|------|----|----------|-----|------|
E||3--------------|--------|--------|------|----|----------|-----|------|
[Verse 1:]
B5 F#5
e||--------------------|----------------------|-----------------|-----------
-----|
B||--------------------|----------------------|-----------------|-----------
-----|
G||--------------------|----------------------|-----------------|-----------
-----|
D||--------------------|----------------------|-----------------|-----------
-----|
A||9-------------------|----------------------|-----------------|-----------
-----|
E||7-------------------|----------------------|2-222-222-223300-|2-222-22222
23335|
P.M. . ... ... ...... . ...
..........
soldiers of sunlight welcome to the kingdom of ignorance
D5 G5
e||----------------|----------------|
B||----------------|----------------|
G||----------------|----------------|
D||----------------|----------------|
A||5555555555555555|55555555--------|
E||----------------|--------33333333|
................ ................
where all the tears of ages tell their
A5
e||----------------|----------------|
B||----------------|----------------|
G||----------------|----------------|
D||----------------|----------------|
A||----------------|----------------|
E||5555555555555555|5555555555555555|
................ ................
tales
E5 B5 D5 A5
no one dares to to break the spell no one dares to fly
E5 F#5
e||----------------|----------------|----------------|----------------|
B||----------------|----------------|----------------|----------------|
G||----------------|----------------|----------------|----------------|
D||9-----9-----9---|9-----9-----9---|11----11----11--|11----11----11--|
A||7-77777-77777-77|7-77777-77777-77|9-99999-99999-99|9-99999-99999-99|
E||----------------|----------------|----------------|----------------|
.... .... .. .... .... .. .... .... .. .... .... ..
time is running out you can't deny
F#5
[Verse 2:]
How many times have you found yourself under the influence?
How many times has a mirror made you cry?
Now it's time to stand upright
Tear down your inner door!
The birth of yourself canҐt wait no more...
G5 B5
In your mind there's a battle raging on
G5 A5
try to find what your fighting for!
[Chorus:]
D5 C5 G5 B5 E5 D5 G5
e||----|--------|--------|------|----|----------|-----|------|
B||----|--------|--------|------|----|----------|-----|------|
G||----|--------|--------|------|----|----------|-----|------|
D||7---|----9---|--------|------|9---|----------|7----|------|
A||5---|----7---|7-------|----9-|7---|----------|5----|7-----|
E||----|--------|5-------|----7-|----|----------|-----|5-----|
Wake up the king! From his sleep in your fantasy!

Harpsichord section:
D A D A
Look at the mountain, look at the sun
D A G Em Bm
feel of the pure energy, birds fly and wisper,
Em Bm G A
call out yor name! They belong to you and you're the
king of the kingdom...
[Solo:]
E||------------------------|-------------------|----------------------------
---------
B||------------10-------10-|12---10------------|----------------------------
---------
G||9-----11-12-------12----|-----------12---11-|----------------------------
---------
D||------------------------|-------------------|----------------------------
---------
A||------------------------|-------------------|----------------------------
---------
e||------------------------|-------------------|----------------------------
---------
There's plenty of work to do on this one, perhaps someone else will feel
inspired to continue?




Ваше мнение



Капча