Band: EDGUY
Album: MANDRAKE
Song: PAINTING ON THE WALL
Tabbed by Markiz-=SLO=-
mail: [email protected]
mail me! : suggestions, cooking recepies....
x-muted
...- continuous (maybe 5-8 times)
~~ - vibrato or wathever
strings/synth effect then the guitar comes in... just before singing
e---------------3---3----|-----------------------------|--(skip if you want)-
B---------------1---0----|-----------------------------|---------------------
G---4---4---5------------|-----4-------5--------------|---------------------
D---4---2---5------------|-----4---2---5---5----------|---5x--4x--2x--------
A---2---2---3---3---2----|-----2---2---3---5----------|---5x--4x--2x--------
E-------0-------3---3----|----------0-------3----------|---3x--2x--0x--------
e----------------------------------------------------------------------------
B-----------------0------0-------5--5-7--7-8--8-7--5--(2)--------------------
G--------------5--0---5--0---7-7--------------------------------5x------7----
D--2x-2x-2x----5--2---5--2---7---------------------------2------5x------7----
A--2x-2x-2x----3--2---3--2---5---------------------------2------3x...---5x..-
E--0x-0x-0x----------------------------------------------0-------------------
and i am falling...
e----------------------------------------------------------------------------
B----------------------------------------------------------------------------
G--4-----5-----------2---4-----5--5------------------------------------------
D--4--2--5---5----3--2---4--2--5--5------------------------------------------
A--2--2--3---5----3--0---2--2--3--7------------------------------------------
E-----0------3----5---------0------------------------------------------------
Come into the painting on the wall
e----------------------------------------------------------------------------
B-----------------0------0-------5--5-7--7-8--8-7--5--(2)--------------------
G--------------5--0---5--0---7-7-------------------------4---5---(7)--(9)----
D--2x-2x-2x----5--2---5--2---7---------------------------4---5---(7)--(9)----
A--2x-2x-2x----3--2---3--2---5---------------------------2---3---(5)--(7)----
E--0x-0x-0x------------------------------------------------------------------
noo more crying ...get insane
e------------------------------------------------
B----------------------------------------0----2x-
G--9-9--9-9---9-9--9-9---5-5--5-5--5-5-5-0-------
D--9-9--9-9---9-9--9-9---5-5--5-5--5-5-5-2-------
A--7-7--7-7---7-7--7-7---3-3--3-3--3-3-3-2-------
E------------------------------------------------
Stories are told
SOLO: (it's close)
e----------------------------------------------------------------------------
B--------17------17--^-----------------------^^------------------------------
G--14/16----16------16---16p-14-h16--14-14---14--12--------------------------
D----------------------------------------------------14----------------------
A----------------------------------------------------------------------------
E----------------------------------------------------------------------------
e-------------------------------------17--15-15-----------15-/--19~~---------
B----------17-----15/17-17--17/15-15--------------15--17---------------------
G--(12)/14----14-------------------------------------------------------------
D----------------------------------------------------------------------------
A----------------------------------------------------------------------------
E----------------------------------------------------------------------------
under solo: E5 , A5, C, this one here i can't hear:)) , G

e----------------------------------------------------------------------------
B----------------------------------------------------------------------------
G--2-(/)-4-5------2--4-5------2--4-5----------2--4-5-------------------------
D-------------2-----------2----------2~~~~------------2---5--5--5------------
A---------------------------------------------------------5--5--5------------
E---------------------------------------------------------3--3--3...---------
OK this is it. Enjoy!!




Ваше мнение



Капча