< Title: No more foolin >
< Artist: Edguy >
< Album: Vain glory opera >
< >
< Trancribed by: Niklas Lehto >
< >
< Send your comments, suggestion e.t.c to: >
< [email protected] >
< http://www.sarctica.cjb.net >
/////////////////////////
*Disable word wrap under edit to view this document correctly!
Tablature explanation:
h = hammer on . = Palm mute
p = pull off A.H = Artificial harmonics
b = Bend pb = prebend
r = release bend s = slide
* = strike the note THEN (when * shows up) mute it
This one is kind of messy, I'll have a look at it later on (yeah, sure... ,)
[Intro:]
e||--------------------------------|--------------------------------|
B||--------------------------------|--------------------------------|
G||----9-----7---------------------|----9-----7---------------------|
D||----------------10--9---7---6---|----------------10--9---7s6-----|
A||0-0---0-0---0-0---0---0---0-----|0-0---0-0---0-0---0---0-----8-7-|
E||--------------------------------|--------------------------------|
. . . . . . . . . . . . . . . . .
e||--------------------------------|--------------------------------|
B||--------------------------------|--------------------------------|
G||----9-----7---------------------|----9-----7---------------------|
D||----------------10--9---7---6---|----------------10--9---7s6-----|
A||0-0---0-0---0-0---0---0---0-----|0-0---0-0---0-0---0---0-----8-7-|
E||--------------------------------|--------------------------------|
||. . . . . . . . . . . . . . . . .
e||-----|----------------------------|------------------------|-----------|
B||-----|----------------------------|------------------------|-----------|
G||-----|-A.H------------------------|------------------------|-----------|
D||-----|-7---------tremolo----------|------------------------|-----------|
A||-----|----------------------------|------------------------|-----------|
E||-----|----------------------------|------------------------|-----------|
e||--------------------------------|--------------------------------|
B||--------------------------------|--------------------------------|
G||----9-----7---------------------|----9-----7---------------------|
D||----------------10--9---7---6---|----------------10--9---7s6-----|
A||0-0---0-0---0-0---0---0---0-----|0-0---0-0---0-0---0---0-----8-7-|
E||--------------------------------|--------------------------------|
||. . . . . . . . . . . . . . . . . |
e||--------------------------------|--------------------------------|
B||--------------------------------|--------------------------------|
G||--------------------------------|--------------------------------|
D||2-2-2---------------------------|5-5-5---------------------------|
A||0-0-0---------------------------|3-3-3---------------------------|
E||--------------------------------|--------------------------------|
e||--------------------------------|--------------------------------|
B||--------------------------------|--------------------------------|
G||----9-----7---------------------|----9-----7---------------------|
D||----------------10--9---7---6---|----------------10--9---7s6-----|
A||0-0---0-0---0-0---0---0---0-----|0-0---0-0---0-0---0---0-----8-7-|
E||--------------------------------|--------------------------------|
||. . . . . . . . . . . . . . . . . |
e||--------------------------------|--------------------------------|
B||--------------------------------|--------------------------------|
G||--------------------------------|--------------------------------|
D||7-7-7---------------------------|--------------------------------|
A||5-5-5---------------------------|3-3-3------------2------x/------|
E||--------------------------------|1-1-1------------0------x/------|
e||--------------------------------|--------------------------------|
B||--------------------------------|--------------------------------|
G||----9-----7---------------------|----9-----7---------------------|
D||----------------10--9---7---6---|----------------10--9---7s6-----|
A||0-0---0-0---0-0---0---0---0-----|0-0---0-0---0-0---0---0-----8-7-|
E||--------------------------------|--------------------------------|
||. . . . . . . . . . . . . . . . . | x 4
e||--------------------------------|--------------------------------|
B||--------------------------------|--------------------------------|
G||----5-----4-----2---1-----------|----5-----4-----2---1-----------|
D||------------------------3---2---|------------------------3s2-----|
A||0-0---0-0---0-0---0---0---0-----|0-0---0-0---0-0---0---0-----5-3-|
E||--------------------------------|--------------------------------|
. . . . . . . . . . . . . . . . .
[Verse:]
e||--------------------------------|--------------------------------|
B||--------------------------------|--------------------------------|
G||--------------------------------|--------------------------------|
D||--------------------------------|--------------------------------|
A||--------------------------------|--------------------------------|
E||0-0---0-0-0---0-0-0---0-0-0---0-|0-0---0-0-0---0-0-0---0-0-0---0-|
. . . . . . . . . . . . . . . . . . . . . . . .
e||--------------------------------|--------------------------------|
B||--------------------------------|--------------------------------|
G||--------------------------------|--------------------------------|
D||--------------------------------|--------------------------------|
A||--------------------------------|--------------------------------|
E||0-0---0-0-0---0-0-0---0-0-0---0-|0-0---0-0-0---0-0-0---0-0-0-----|
. . . . . . . . . . . . . . . . . . . . . . .
[Short lead:]
e||------------------------------------------------|
B||A.H---------------------------------------------|
G||7b9------7h9p7-9---7------------------A.H-------|
D||--------------------------???--9------9---------|
A||------------------------------------------------|
E||------------------------------------------------|
[Bridge:]
e||----------------------------|----------------------------|
B||----------------------------|----------------------------|
G||----------------------------|----------------------------|
D||----------------------------|----------------------------|
A||8----7----8-----------------|8----7----8-----------------|
E||6----5----6-----------------|6----5----6-----------------|
|| |
|| |
e||----------------------------|----------------------------|
B||----------------------------|----------------------------|
G||------3---1h3-------3---1h3-|------3---1h3-------3---1h3-|
D||----------------------------|----------------------------|
A||1-1-1---------1-1-1---------|1-1-1---------1-1-1---------|
E||----------------------------|----------------------------|
. . . . . . . . . . . .
e||----------------------------|----------------------------|
B||----------------------------|----------------------------|
G||----------------------------|----------------------------|
D||-----7----5-----------------|-----7----5-----------------|
A||---------------8----7----8--|---------------8----7----8--|
E||----------------------------|----------------------------|
|| |
|| |
e||----------------------------|----------------------------|
B||----------------------------|----------------------------|
G||----------------------------|-----A.H--------------------|
D||-----3----2-----------------|-----3----2-----------------|
A||0--------------5----3----5--|0--------------5----3----5--|
E||----------------------------|----------------------------|
e||--------------------------------|--------------------------------|
B||--------------------------------|--------------------------------|
G||--------------------------------|--------------------------------|
D||--------------------------------|5---------------4--Not sure-----|
A||2-------------------------------|3---------------2---------------|
E||0-------------------------------|----------------3---------------|
|| |
|| |
e||--------------------------------|--------------------------------|
B||--------------------------------|--------------------------------|
G||--------------------------------|--------------------------------|
D||--------------------------------|5-------5-------4---------------|
A||2-------2-------2-------2-------|3---3-3-3---3-3-2---2-2-2-2-2-2-|
E||0---0-0-0---0-0-0---0-0-0---0-0-|--------------------------------|
. . . . . . . . . . . . . . . . . .
[Chorus:]
e||--------------------------------|--------------------------------|
B||--------------------------------|--------------------------------|
G||--------------------------------|--------------------------------|
D||0h2-------------3p2-------------|0h2-------------3-----3-----3---|
A||--------------------------------|----------------1-----1-----1---|
E||----0-0-0-0-0-0-----0-0-0-0-0-0-|----0-0-0-0-0-0-----------------|
|| . . . . . . . . . . . . . . . . . . |
|| |
e||--------------------------------|--------------------------------|
B||--------------------------------|--------------------------------|
G||--------------------------------|--------------------------------|
D||--------------------------------|--------------------------------|
A||--------------------------------|--------------------------------|
E||--------------------------------|--------------------------------|
e||--------------------------------|--------------------------------|
B||--------------------------------|--------------------------------|
G||--------------------------------|--------------------------------|
D||0h2-------------3p2-------------|5---------------7---------------|
A||--------------------------------|3---------------5---------------|
E||----0-0-0-0-0-0-----0-0-0-0-0-0-|--------------------------------|
|| . . . . . . . . . . . . |
|| |
e||--------------------------------|--------------------------------|
B||--------------------------------|--------------------------------|
G||--------------------------------|--------------------------------|
D||--------------------------------|--------------------------------|
A||--------------------------------|--------------------------------|
E||--------------------------------|--------------------------------|
e||--------------------------------|--------------------------------|
B||--------------------------------|--------------------------------|
G||--------------------------------|--------------------------------|
D||--------------------------------|--------------------------------|
A||--------------------------------|--------------------------------|
E||--------------------------------|--------------------------------|
|| |
|| |
e||--------------------------------|--------------------------------|
B||--------------------------------|--------------------------------|
G||--------------------------------|--------------------------------|
D||--------------------------------|--------------------------------|
A||--------------------------------|--------------------------------|
E||--------------------------------|--------------------------------|
e||--------------------------------|--------------------------------|
B||--------------------------------|--------------------------------|
G||--------------------------------|--------------------------------|
D||--------------------------------|--------------------------------|
A||--------------------------------|--------------------------------|
E||--------------------------------|--------------------------------|
|| |
|| |
e||--------------------------------|--------------------------------|
B||--------------------------------|--------------------------------|
G||--------------------------------|--------------------------------|
D||--------------------------------|--------------------------------|
A||--------------------------------|--------------------------------|
E||--------------------------------|--------------------------------|
There's plenty of work to do on this one, perhaps someone else will feel
inspired to continue?




Ваше мнение



Капча