/////////////////////////
< Title: Land of the miracle >
< Artist: Edguy >
< Album: Theater of salvation >
< >
< Trancribed by: Niklas Lehto >
< >
< Send your comments, suggestion e.t.c to: >
< [email protected] >
< http://www.sarctica.cjb.net >
/////////////////////////
*Disable word wrap under edit to view this document correctly!
h = hammer on . = Palm mute
p = pull off A.H = Artificial harmonics
b = Bend pb = prebend
r = release bend s = slide
All guitars are probably 1/2 downed, but I trancribed it
in original tuning and I'm too lazy to correct it.
[Intro:]
| F | C/F | A#/F | C/F | F/F | C/F | A#/F | C/F |
[Verse1:]
F/C C A#/c C
Blinded by the fire and the sorrow of the day,
F C A# C
I come knocking at your door to dry the tears away,
F C Dm Dm/A Am
the eventide is calling me to take a look into your e-y-e-s,
A# Dm C F
pull me on and make me mesmerized!
[Bridge:]
F C
Riding on the wings of light,
F C
dreaming dreams and holding tight:
F C/E F/D C A#Maj7
leaving all my sorrow far behind,
your eyes are the gate
[Guitar enters:]
|--|----------------|
|--|----------------|
|--|--------7---5---|
|3-|3-------7---5---|
|0-|1-------5---3---|
|--|----------------|
[Chorus:] (Guitar plays powerchords)
F A# Dm C A#
To the land of the miracle where our love can make us fly,
C F C F
make us fly,
A#
in the land of the miracle,
Dm C A# C A#
we can can find a reason why and how we can fly.
Piano: | F | C | A# | C | F | C | A# | C |
Guitar: | F5 | F5 | F5 | F5 | F5 | F5 | F5 | F5 |
[Verse2:]
(Piano plays same as in 1st verse)
F5
Open up the book up madness read the page of life!
C5 A#5 C5
Who's the one to tell you what to do and how to rise!
F5 C5 D5 A5
And if the stars would fall one day I'd climb up the sky
A#5 D5 C5 A#5 C5
To put them back for you to save your smile.
[Bridge:]
F5
Riding on the wings of light,
dreaming dreams and holding tight:
F5 E5 D5 C5 A#5
leaving all my sorrow far behind,
your eyes are the gate
|--|----------------|
|--|----------------|
|--|--------7---5---|
|3-|3-------7---5---|
|0-|1-------5---3---|
|--|----------------|
[Chorus:]
[Solo:]
1st guitar only:
|--------------|-------------|-------------|-----------|
|--------------|-------------|-------------|-----------|
|10---9--------|-------------|7------------|-----------|
|---------10---|7------------|----10---8---|7----------|
|--------------|-------------|-------------|------10---|
|--------------|-------------|-------------|-----------|
1st guitar:
|--------------|-------------|------------------------------|------8-10-12--
-|
|--------------|-------------|------------8----8-10-8-10-11-|10-11----------
-|
|10---9--------|-------------|7-9-10-9-10---10--------------|---------------
-|
|---------10---|7------------|------------------------------|---------------
-|
|--------------|-------------|------------------------------|---------------
-|
|--------------|-------------|------------------------------|---------------
-|
| P.M. . . . . . . . . . . . . . . .
|
|2nd guitar:
|
|--------------|-------------|------------------------------|-----------8---
-|
|10---8--------|-------------|--------------------------8---|---8-10-11-----
-|
|---------10---|9------------|-----7----7-9-7-9-10-9-10-----|10-------------
-|
|--------------|-------------|8-10---10---------------------|---------------
-|
|--------------|-------------|------------------------------|---------------
-|
|--------------|-------------|------------------------------|---------------
-|
P.M. . . . . . . . . . . . . . . .
1st guitar:
|------------------|-------------|------------------|----------------|
|10---11---11b13---|-------------|------------------|----------------|
|------------------|12-----------|10---12---12b14---|12--------------|
|------------------|-------------|------------------|----------------|
|------------------|-------------|------------------|----------------|
|------------------|-------------|------------------|----------------|
| |
|2nd guitar: |
|------------------|-------------|------------------|----------------|
|------------------|-------------|------------------|----------------|
|10---12---12b14---|9------------|-----9---9b10-----|9---------------|
|------------------|-------------|12----------------|----------------|
|------------------|-------------|------------------|----------------|
|------------------|-------------|------------------|----------------|
1st guitar:
|------------------|-------------|-----------------------------------|------
----|
|11---13---13b15---|-------------|8b10------8b10---Release
bend-10-8-|----------|
|------------------|14-----------|-----------------------------------|10---9
-10-|
|------------------|-------------|-----------------------------------|------
----|
|------------------|-------------|-----------------------------------|------
----|
|------------------|-------------|-----------------------------------|------
----|
|
|
|2nd guitar:
|
|------------------|-------------|-----------------------------------|------
----|
|------------------|-------------|-----------------------------------|------
----|
|12---14---14b15---|-------------|9b10------9b10---Release
bend-10-9-|7---------|
|------------------|15-----------|-----------------------------------|------
----|
|------------------|-------------|-----------------------------------|------
----|
|------------------|-------------|-----------------------------------|------
----|
1st guitar only
|----------|-----12b13---12---13---|13---|
|11-----10-|11---------------------|-----|
|----------|-----------------------|-----|
|----------|-----------------------|-----|
|----------|-----------------------|-----|
|----------|-----------------------|-----|
[Chorus and repeat:]




Ваше мнение



Капча