< Title: How many miles >
< Artist: Edguy >
< Album: Vain glory opera >
< >
< Trancribed by: Niklas Lehto >
< >
< Send your comments, suggestion e.t.c to: >
< [email protected] >
< http://www.sarctica.cjb.net >
/////////////////////////
*Disable word wrap under edit to view this document correctly!
Tablature explanation:
h = hammer on . = Palm mute
p = pull off A.H = Artificial harmonics
b = Bend pb = prebend
rb = release bend / = slide
* = strike the note THEN (when * shows up) mute it
INTRO:
A5
E||-------|------|---------|-------|
B||-------|------|---------|-------|
G||-------|------|---------|-------| Repeat once
D||-------|------|---------|-------|
A||7------|------|7-*--7-7-|7-7----|
e||5------|------|5-*--5-5-|5-5----|
. . . .
A5 G5 F5 C5 G5 E5
E||-------|------------|--------|-------|
B||-------|------------|--------|-------|
G||-------|------------|--------|-------| Repeat figure during verses. Last
time, skip the E5 and let the G5 ring.
D||-------|------------|----5---|-------|
A||7------|---7-7-7--5-|3---3---|5----3-|
e||5------|---5-5-5--3-|1-------|3----0-|
. . . .
Oh yeah...
VERSE 1:
Watching a face and a smile and a light
When you're walking alone in the street
I know your look always gives you the might
Many miles from your ass to your feet
BRIDGE:
D5 G5
E||--------------------------------|--------------------------------|
B||--------------------------------|--------------------------------|
G||--------------------------------|--------------------------------|
D||7-7-7-7-7-7-7-7-7-7-7-7-7-7-7-7-|--------------------------------|
A||5-5-5-5-5-5-5-5-5-5-5-5-5-5-5-5-|5-5-----5-------5-5-----5-------|
e||--------------------------------|3-3-----3-------3-3-----3-------|
||. . . . . . . . . . . . . . . . . . . . . . |
|| |
E||--------------------------------|----------------------------3-3-|
B||--------------------------------|----------------3-3-5-5-6-6-----|
G||--------------------------------|----2-2-4-4-5-5-----------------|
D||--------------------------------|5-5-----------------------------|
A||--------------------------------|--------------------------------|
e||--------------------------------|--------------------------------|
|| . . . . . . . . . . . . . . . . |
|| |
|| |
E||--------------------------------|--------------------3-3-5-5-7-7-|
B||--------------------------------|--------3-3-5-5-6-6-------------|
G||--------------------------------|4-4-5-5-------------------------|
D||--------------------------------|--------------------------------|
A||--------------------------------|--------------------------------|
e||--------------------------------|--------------------------------|
. . . . . . . . . . . . . . . .
And I dream...
C5 G5
E||--------------------------------|--------------------------------|
B||--------------------------------|--------------------------------|
G||--------------------------------|--------------------------------|
D||5-------------------------------|--------------------------------|
A||3-------------------------------|3-------3-3-----3-------3-3-----|
e||--------------------------------|1-------1-1-----1-------1-1-----|
|| . . . . . . |
|| |
E||--------------------------------|--------------------------------|
B||--------------------------------|--------------------3-3-5-5-6-6-|
G||--------------------------------|--------2-2-3-3-5-5-------------|
D||--------------------------------|3-3-5-5-------------------------|
A||--------------------------------|--------------------------------|
e||--------------------------------|--------------------------------|
|| . . . . . . . . . . . . . . . . |
|| |
E||--------------------------------|------------------------3-3-5-5-|
B||--------------------------------|------------3-3-5-5-6-6---------|
G||--------------------------------|2-2-3-3-5-5---------------------|
D||--------------------------------|--------------------------------|
A||--------------------------------|--------------------------------|
e||--------------------------------|--------------------------------|
. . . . . . . . . . . . . . . .
What I've seen...
A#5 G5 A5
E||-------------------|---------------|-------------------------------------
----|
B||-------------------|---------------|-------------------------------------
----|
G||-------------------|---------------|-------------------------------------
----|
D||3------------------|---------------|-------------------------------------
----|
A||1------------------|5--------------|7---------------------------------*--
----|
e||-------------------|3--------------|5---------------------------------*--
----|
||
|
||
|
E||-------------------|---------------|----------------------|--------------
----|
B||-------------------|---------------|----------------------|--------------
----|
G||-------------------|---------------|----------------------|--------------
----|
D||-------------------|---------------|7*-5*-7*-8*-7h8p7-5*--|7*-5*-7-5-7*--
----|
A||-------------------|---------------|----------------------|--------------
----|
e||-------------------|---------------|----------------------|--------------
----|
Is what I want it to be - Selfmade Reality
CHORUS:
D5 A#5 G5 C5 A5
How many miles to the gate of reality
D5 A#5 C5 F5 G5
How many steps left to go to my dreams
D5 A#5 G5 C5 A5
How many miles to the land where my dreams come true
D5 A#5 C5 F5 G5
Dreams which come true just have died
A5
E||-------|------|---------|-------|
B||-------|------|---------|-------|
G||-------|------|---------|-------|
D||-------|------|---------|-------|
A||7------|------|7-*--7-7-|7-7----|
e||5------|------|5-*--5-5-|5-5----|
. . . .
VERSE 2:
Look like a Queen but you talk like a pawn
And I know you're a fool in disguise
Godfather tell me how to carry on
Blinded by fantasies of lies
BRIDGE:
And I dream - what I've seen
Is what I want it to be - selfmade reality
CHORUS:
D5 A#5 G5 C5 A5
How many miles to the gate of reality
D5 A#5 C5 F5 G5
How many steps left to go to my dreams
D5 A#5 G5 C5 A5
How many miles to the land where my dreams come true
D5 A#5 C5 F5 G5
Dreams which come true just have died
STICK:
Keyboard plays | Dm | C | A# | |
D5
E||-----------------------|-------------------|
B||-----------------------|-------------------|
G||-----------------------|-------------------| Repeat four times
D||7-------7-7-7------7-7-|7-7-7--------------|
A||5-------5-5-5------5-5-|5-5-5--------------|
e||-----------------------|-------------------|
. . . . . . . . .
I see your smile, a golden masquerade
And I know my dream it will be my fate
D3
E||-----------------------|-------------------|
B||-----------------------|-------------------|
G||-----------------------|-------------------| Repeat four times
D||3-------3-3-3------3-3-|3-3-3--------------|
A||5-------5-5-5------5-5-|5-5-5--------------|
e||-----------------------|-------------------|
. . . . . . . . .
Time has stolen my fantasy
Cause it has become a pale reality
SOLO:
Part 1:
E||---------------------------------------|12b13------12h13p12--------------
-------|
B||13b15-----13h15p13-13b15------13h15p13-|--------------------13b15------10
h12p10-|
G||---------------------------------------|---------------------------------
-------|
D||---------------------------------------|---------------------------------
-------|
A||---------------------------------------|---------------------------------
-------|
e||---------------------------------------|---------------------------------
-------|
E||----------------------------------|------------------------------|
B||-----------13---------------------|------------------------------|
G||12b14------15b17-12b14------10-12-|12b14---------10h12p10-9------|
D||----------------------------------|------------------------------|
A||----------------------------------|------------------------------|
e||----------------------------------|------------------------------|
Part II:
E||-----------------------------------------------|-------------------------
---------------------------|
B||10-11-10----10---------10-11-10----10----------|10-11-10----10-11-13p11h1
3-13b15------13b15rb-10-13-|
G||---------12----12---------------12----12----12-|---------12--------------
---------------------------|
D||------------------12---------------------12----|-------------------------
---------------------------|
A||-----------------------------------------------|-------------------------
---------------------------|
e||-----------------------------------------------|-------------------------
---------------------------|
E||------------------------------|---------------------------------|
B||13b15------13pb15release bend slowly-----10h11p10-10----10------|
G||-----------------while picking the note-------------------------|
D||----------------------rapidly-|---------------------------------|
A||------------------------------|---------------------------------|
e||------------------------------|---------------------------------|
Have no idea whatsoever how to trancribe this, so I just explain it
instead!
Part III:
Two versions of the same riff...
a)
E||------------------------13-10----12-10----13-10-|
B||13-10----11-10----13-10-------10-------10-------|
G||------10-------10-------------------------------| Repeat once
D||------------------------------------------------|
A||------------------------------------------------|
e||------------------------------------------------|
Alternatively, play
b)
Tapping
e||-----------------------h13p10p5h12p10p5h13p10-|
B||h13p10p6h11p10p6h13p10|-----------------------|
G||----------------------------------------------| Repeat once
D||----------------------------------------------|
A||----------------------------------------------|
E||----------------------------------------------|
THEN,
E||12/15------15b17-15b17rb-13-15-|15b17------15b17rb
13-15-13-12------12------|
B||-------------------------------|-----------------------------------------
---|
G||-------------------------------|-----------------------------------------
---|
D||-------------------------------|-----------------------------------------
---|
A||-------------------------------|-----------------------------------------
---|
e||-------------------------------|-----------------------------------------
---|
Part IV:
E||13-12----12-----------------------------------------------------------|
B||------15----15-13-15-13-11-13-11----11--------------------------------|
G||---------------------------------14----14-12-14-12-10-12-10-9-10-9----|
Damn, this part is though! I'm stuck, but I
D||-------------------------------------------------------------------12-|
will finish this last part later on. Hopefully.
A||----------------------------------------------------------------------|
e||----------------------------------------------------------------------|
Part V:
E||-----------------------------------|---------------------|---------------
--------------------|
B||13----12----10----13----12----10---|12---------10--------|10-------------
---10---------------|
G||-----------------------------------|----------------12---|------12----10-
---------12----10---|
D||-----------------------------------|---------------------|---------------
--------------------|
A||-----------------------------------|---------------------|---------------
--------------------|
e||-----------------------------------|---------------------|---------------
--------------------|
E||-------------------------------------|
B||--------10----12----------10----12---|
G||13------------------13---------------|
D||-------------------------------------|
A||-------------------------------------|
e||-------------------------------------|
E||-----------------------------------|---------------------|---------------
----12---12h13---|
B||13----12----10----13----12----10---|12---------10--------|11-------13---1
5----------------|
G||-----------------------------------|----------------12---|---------------
-----------------|
D||-----------------------------------|---------------------|---------------
-----------------|
A||-----------------------------------|---------------------|---------------
-----------------|
e||-----------------------------------|---------------------|---------------
-----------------|
E||12---------13-12----12---------------|
B||-----------------15------------------|
G||-------------------------------------|
D||-------------------------------------|
A||-------------------------------------|
e||-------------------------------------|
Ok, some things remains to do, especially in the solos,
perhaps I'll have a look at this one later. Probably
much later though... ;)


Ваше мнение



Капча