From: Steven [[email protected]]
Sent: Thursday, January 08, 1998 2:09 AM
Song: Sparkle and Shine
Artist: Econoline Crush
Dropped D tuning
part one:
e---------------------------
b---------------------------
g---------------------------
d-1-1-1-8-7-4-1-4-1-6-6-4-1-
a-1-1-1-8-7-4-1-4-1-6-6-4-1-
D-1-1-1-8-7-4-1-4-1-6-6-4-1-
end part one.
part two:
-----------
-/4-/6-----
-------3-6-
-----------
-----------
-----------
end part two.
part three:
----------------------------------------------
----------------------------------------------
----------------------------------------------
-14-14-12-11-9-9-11-12-14-14-12-11-7-7-5-5-5-5
-14-14-12-11-9-9-11-12-14-14-12-11-7-7-5-5-5-5
-14-14-12-11-9-9-11-12-14-14-12-11-7-7-5-5-5-5
end part three.
part four:
----------9-------------------9---
-------11---11-------------11-----
----11------------------11--------
----------------------------------
----------------------------------
----------------------------------
end part four
part five:
-------12-14-12----12------------14-12-12---12----
-12-15----------15----12---12-15----------15---12-
--------------------------------------------------
--------------------------------------------------
--------------------------------------------------
--------------------------------------------------
end part five.
part six:
-----------------------
-----------------------
-----------------------
-1-1-1-8-7-10-10-12-12-
-1-1-1-8-7-10-10-12-12-
-1-1-1-8-7-10-10-12-12-
end part six.
part seven:
------------------------------------------------
------------------------------------------------
-10\8-10-11-10-11-10-11-13-11-10-11-13-15-13/18-
------------------------------------------------
------------------------------------------------
------------------------------------------------
------------------------------------------------
------------------------------------------------
------------------------------------------------
15-17-19-17-17-19-20-19-20-19-20-19-20-19-17/19-
------------------------------------------------
------------------------------------------------
-------------------------------------
-10/12-10/12-15\12-15\12-15/17-17/19-
-------------------------------------
-------------------------------------
-------------------------------------
-------------------------------------
end part seven
part eight (outro)
-----------
-----------
-----------
-1--(FADE)-
-1---------
-1---------
end part eight.
----------------------------------------------------------------------------------------------
Part one x8
Part two x4
Part three x4
Part one x6 (part four x2)
Part two x4
part three x4
part six x4 (part five x2)
part seven
part three x4
part eight
Lyrics (In order all the way through)
Sometimes I feel I'm going under
you don't feel nothing at all
give me hope,
give me something to believe in
this jaded heart was never enough
you don't know me
you know you never you will
can't see inside
lost out on the thrill
killed by ambition
sacrificed for fame
one more time
One last time
Sparkle and Shine
Sparkle and Shine
Sparkle and Shine
Tonight Tonight Tonight
your rejection's intoxicating
my high is incomplete
kill the pain plug the hole, stop the music
you leave me hollow
wanting more
you don't know me
you know you never you will
can't see inside lost out on the thrill
killed by ambition
sacrificed for fame
one more time
one last time
Sparkle and Shine
Sparkle and Shine
Sparkle and Shine
Tonight Tonight Tonight
Don't Look Back
Don't Look Back
Ah Ah Ah Ah Ah
one more time
one last time
Sparkle and Shine
Sparkle and Shine
Sparkle and Shine
Tonight Tonight Tonight





Ваше мнение



Капча