Rust - Echo & The Bunnymen
From the album - What Are You Going To Do With Your Life? - 1999
Written by - Ian McCulloch and Will Sergeant
Transcribed by B. Fish

C Am
Intro - Wish that you were here, Down amongst the dust
F G
Need someone to help me, yeh need someone to trust ....

( The intro and verse follows that pattern)
C D
Pre-chorus Wish that you were here, Wish that it were true

Chorus -
C D
I can feel the stars shooting through my heart like rain
C G
Leaving all the scars where the pleasure turns to pain .... (Continue pattern)

Break ( after the chorus ) - /G Am C E/ / pause /

Outro - ( same as chorus ) /C D/ /C G/

Lead -

Chorus
e 7---4-----7----4------7-4-----/7---4-----7---4-----9-7---/
b ------6------------6------6---/------6----------6------7-/
g ------------------------------/--------------------------/

Solo 1
b -7----7--8--7--9-/-9--6--7--5-/-5--6--7--3-/---1-----3~-----1----/
g -----------------/------------/------------/---------------------/

Solo 2
b -------------------/--------------/------------/---------/
g 7--(b)--7--6--7--5-/8--7--6--7--5-/8--6--7--9--/9--6---7-/

b -------------------/--------------/---------------/
g 7--(b)--7--6--7--5-/8--7--6--7--5-/8--6--7---12.--/

Slide riff -
e --9----9-(slide)-14---14 (slide)-7--x2 ( just play this bar on outro )

e --7----7-(slide)-12---12-(slide)-5--




Ваше мнение



Капча