-#
Date: Sun, 4 Feb 1996 11:52:02 -0700
From: [email protected] (Nathan O'Neal)
Subject: TAB: Crystal Days by Echo & The Bunnymen
Crystal Days by Echo & The Bunnymen
tabbed by Nathan O'Neal (noneal&imt.net)

Riff #1
|--------------------------|
|--------------------------|
|4/9--9\4-4-4--2-2--4-4-4--|
|--------------------------|
|--------------------------|
|--------------------------|
Riff E
|------7-----7--7----------|
|------9-----9--9----------|
|------9-----9--9----------|
|------9-----9--9----------|
|--------------------------|
|--------------------------|
Note: also sounds good playing all chords Like E B A B and repeating.
Riff # 1 Riff # 1
E E
Here am I, home at last with a golden view,
E E
Lookin' for hope and I hope its you.
E E
Spliting my heart, cracked right in two
E E
The pleasure and pain and joy to
A B
Purify
A B
Our misfit ways and
A B
Magnify
A B
Our crystal days
Riff # 1 Riff # 1
E E
Where are you, in shadows only I can see
E E
looking for hope and you hope its me
E E
Tattered and torn and born to be
E E
Building a world where we can
A B
Purify
A B
Our misfit ways and
A B
Magnify
A B
Our crystal days
SOLO
A B A B
|--0--2-----------|---------|----------|---0---2--------------------|
|--2--4-----5-3-0-|--O--/---|---O-/----|---2---4----5--3-0--5--3--0-|
|--2--4--2--------|-----/---|-----/----|---2---4--2-----------------|
|--2--4-----------|----/-O--|---/--O---|---2---4--------------------|
|-----------------|---------|----------|----------------------------|
|-----------------|---------|----------|----------------------------|
PURIFY MAGNIFY
Riff # 1 Riff #1
Riff # 1 Riff #1
E E
Here am I, home at last with a golden view,
E E
Lookin' for hope and I know its you.
E E
Spliting my heart, cracked right in two
E E
The pleasure and pain and joy to
A B
Purify
A B
Our misfit ways and
A B
Magnify
A B
Our crystal days
Riff # 1 Riff # 1
Riff # 1 Riff # 1




Ваше мнение



Капча