Artist : Earth Wind and Fire
Title : September
Tabber : FunkAssFleaBass

Intro:
G|----------------| 2x |-----|
D|--------17-19---| 2x |-----|
A|----0-0---------| 2x |--0--|
E|----------------| 2x |-----|

Verse:
G|-----------------------| 2x
D|-----------------------| 2x
A|-5-5-4-2-2-4-2---------| 2x
E|---------------0-2-5---| 2x
|___ 1|___ 2|
G|----------------------------------------------------|-----|-----|
D|-------------2-3-4-----------5-7------5-7------5-7--|-----|-----|
A|-5-5-4-2-2-4-------4-2---0-0------0-0------0-0------|-0-0-|-0-1-|
E|----------------------------------------------------|-----|-----|

Chorus:
G|-------------------------| 2x
D|---4-2-------------------| 2x
A|-2-----0-2-4-4-2-----0---| 2x
E|-----------------0-2-----| 2x

G|---------------------------------------------------------|
D|---4-2---------2-3-4-----------5-7------5-7------5-7-----|
A|-2-----0-2-4-4-------4-2---0-0------0-0------0-0-----0-0-|
E|---------------------------------------------------------|

Its a nice number, so play it nice!
Comments are always welcome.. [email protected]

Enjoy!




Ваше мнение



Капча

Рекомендуем