This is just a quick tab, sounds good but probably isn't perfect

Verse
------------------------------------------------------------
------------------------------------------------------------
------------------------------------------------------------
--3-4---0---6-4---------------------------------------------
--3-4---0---6-4---------------------------------------------
--3-4---0---6-4---------------------------------------------

chorus (these are the chords, figure out the strum pattern for yourself)
------------------------------------------------------------
------------------------------------------------------------
---5------3------x-----3------------------------------------
---3------1------0-----1------------------------------------
---3------1------0-----1------------------------------------
---3------1------0-----1------------------------------------





Ваше мнение



Капча