Artist: Earshot
Title: headstrong
Tabbed by: Andrew
Tuning: Dropped D
Intro x2
E----------------------------------------------------------------|
G----------------------------------------------------------------|
B------------------------------------------------------0---------|
D--1/0-1/2-1/0-1/2-1/0-1/0-0---1/0-1/2-1/0-1/2-1/0-1/0-----------|
A----------------------------------------------------------------|
D----------------------------------------------------------------|
Distorted part x2
E--------------------------------------------------------------|
G--------------------------------------------------------------|
B--------------------------------------------------------------|
D--1/0-1/2-1/0-1/2-1/0-1/0--0--1/0-1/2-1/0-1/2-1/0-1/0--5------|
A--1/0-1/2-1/0-1/2-1/0-1/0--0--1/0-1/2-1/0-1/2-1/0-1/0--5------|
D--1/0-1/2-1/0-1/2-1/0-1/0--0--1/0-1/2-1/0-1/2-1/0-1/0--5------|
The verse is the same as the distorted part but with palm mutes and
then u hit off on the 5...listen to the song and ull know what i mean.
Chorus x4
E---------------------------------------------------------------|
G---------------------------------------------------------------|
B---------------------------------------------------------------|
D---9-9-9-5-5-5-2-2-2-4-4-4-------------------------------------|
A---9-9-9-5-5-5-2-2-2-4-4-4-------------------------------------|
D---9-9-9-5-5-5-2-2-2-4-4-4-------------------------------------|
Then u play the distorted part and verse again
Solo
E----10----10---10---10---10---10---10---10---10---10-----------|
G--8----8-----8----8----8----8----8----8----8----8--------------|
B---------------------------------------------------------------|
D---------------------------------------------------------------|
A---------------------------------------------------------------|
D---------------------------------------------------------------|
keep on playing the solo countlessly...until second distortion kicks
in, which is this...but i think this part is wrong cos im takin this
off my memory
E---------------------------------------------------------------|
B---------------------------------------------------------------|
G---------------------------------------------------------------|
D--10-11-8-8-8-9------------------------------------------------|
A--10-11-8-8-8-9------------------------------------------------|
D--10-11-8-8-8-9------------------------------------------------|
after that u play the chorus once again...and im guessin thats it...
enjoy...if anyone reads it...





Ваше мнение



Капча