Get Away-Earshot
Letting Go
Drop Db:
Db Ab Db Gb Bb Eb
Intro: Riff A
e-----------------------------------------------------------------
b-----------------------------------------------------------------
g-----------------------------------------------------------------
d-12------10------7----------12------10------7--------------------
a--x-------x------x-----------x-------x------x--------------------
d-12------10------7----------12------10------7---------------7/---
Verses: Riff A w/ lead parts
w/ delay, come in on A5 oct chord each time
pm
e--------8-------8--7-----8----------
b----7-7---8-7-7---8--7-7---8-7-7----
g------------------------------------
d------------------------------------
a------------------------------------
d------------------------------------
e------------8-----87---------------
b---7--7-7-8-----8-----7-----8-------
g----7---------------------7---------
d------------------------------------
a------------------------------------
d------------------------------------
e-----8-----8-----------8-8----------
b-------8-7---8-7-7---------8-8------
g------------------------------------
d------------------------------------
a------------------------------------
d------------------------------------
e-----------------------------------------------------------------
b-----------------------------------------------------------------
g-----------------------------------------------------------------
d-12------10------7----------12------10------7--7-7-7-7-7-7-7-7-7-
a--x-------x------x-----------x-------x------x--x-x-x-x-x-x-x-x-x-
d-12------10------7----------12------10------7--7-7-7-7-7-7-7-7-7-
pm
Pre Chorus:
gtr. 3
e-10----10-101010101010101010101010101010101010101010101010101010-
b---11-----111111111111111111111111111111111111111111111111111111-
g-----12---121212121212121212121212121212121212121212121212121212-
d-----------------------------------------------------------------
a-----------------------------------------------------------------
d-----------------------------------------------------------------
gtr. 1
e-----------------------------------------------------------------
b-----------------------------------------------------------------
g-----------------------------------------------------------------
d-8-8-8-5-5-5-4-4-4-7-7-7---------8-8-8-5-5-5-4-4-4-7-7-7---------
a-x-x-x-x-x-x-x-x-x-x-x-x-0-0-1p0-x-x-x-x-x-x-x-x-x-x-x-x-0-0-1p0-
d-8-8-8-5-5-5-4-4-4-7-7-7-0-0-1p0-8-8-8-5-5-5-4-4-4-7-7-7-0-0-1p0-
gtr. 3
e-10----10-101010101010101010101010101010101010101010101010101010-
b---11-----111111111111111111111111111111111111111111111111111111-
g-----12---121212121212121212121212121212121212121212121212121212-
d-----------------------------------------------------------------
a-----------------------------------------------------------------
d-----------------------------------------------------------------
gtr. 1
e-----------------------------------------------------------------
b-----------------------------------------------------------------
g-----------------------------------------------------------------
d-8-8-8-5-5-5-4-4-4-7-7-7---------8-8-8-5-5-5-4-4-4-7-7-7---------
a-x-x-x-x-x-x-x-x-x-x-x-x-0-0-1p0-x-x-x-x-x-x-x-x-x-x-x-x-0-0-1p0-
d-8-8-8-5-5-5-4-4-4-7-7-7-0-0-1p0-8-8-8-5-5-5-4-4-4-7-7-7-0-0-1p0-
gtr. 2
e-----------------------------------------------------------------
b---------------------------------15-----13-----10----8---7-------
g----------------------------------x------x------x----x---x-------
d---------------------------------12-----10------7----5---4-------
a-----------------------------------------------------------------
d-----------------------------------------------------------------
Chorus:
e---------------------------------------
b---------------------------------------
g---------------------------------------
d---12-----10-----12-----10---12/13-13-- x3
a---12-----10-----12-----10---12/13-13--
d-0-12--p0-10--p0-12--p0-10p0-12/13-13--
e---------------------------------------
b---------------------------------------
g---------------------------------------
d---12-----10-----12-----8--------------
a---12-----10-----12-----8--------------
d-0-12--p0-10--p0-12--p0-8--------------
e---------------------------------------
b---------------------------------------
g---------------------------------------
d---12-----10-----12-----10---12/13-13-- x3
a---12-----10-----12-----10---12/13-13--
d-0-12--p0-10--p0-12--p0-10p0-12/13-13--
gtr. 2
e---------------------------------------
b--10------10-------10-------10---------
g-------7-------7--------7--------7-----
d---------------------------------------
a---------------------------------------
d---------------------------------------
gtr. 1
e---------------------------------------
b---------------------------------------
g---------------------------------------
d---12-----10-----12-----8---8---8------
a---12-----10-----12-----8---8---8------
d-0-12--p0-10--p0-12--p0-8---8---8------
Interlude: w/ Riff A
come in on A5 oct. chord
e---------8-------8--7-----8------------
b-----7-------7-----8--7-7---8-7--------
g-7-7-----------------------------------
d---------------------------------------
a---------------------------------------
d---------------------------------------
2nd verse: w/ Riff A
lead part w/ delay, come in on A5 oct. chord
pm
e-------8-------8-------------8---------
b---7-7-------------8-7---------8-7-----
g---------------------------------------
d---------------------------------------
a---------------------------------------
d---------------------------------------
e----8-----10-------8-8-----8-----8-----
b------8-7--------------8-7---8-7-------
g-10------------------------------------
d-------------10------------------------
a---------------------------------------
d---------------------------------------
e-10-8-----------------10-8-------------
b----------7-------------------7--------
g---------------------------------------
d---------------------------------------
a---------------------------------------
d---------------------------------------
e-10-----8------------------------------
b------8---8----8p7----7-7----6/7-6/7---
g----7----------------------------------
d-------------------10-----10-----------
a---------------------------------------
d---------------------------------------
Bridge:
e---------------8----------------------------------------------8--
b--------------------8-7--8-7-7-8-7---7-8-8-8-10-8p7---7---7h8-8--
g-7--7--7--7--7---------------------7---------------7----7--------
d-----------------------------------------------------------------
a-----------------------------------------------------------------
d-----------------------------------------------------------------
e-----------------------------------------------------------8-8---
b-------------------------------------------------8-8---7-7-8-8---
g-----------------------------------------------------7---------7-
d-----------------------------------------------------------------
a-----------------------------------------------------------------
d-----------------------------------------------------------------
...ground !...
gtr. 1
Fig 3.
e-----------------------------------------------------------------
b-----------------------------------------------------------------
g-----------------------------------------------------------------
d-0--0--0--0-8---8-8-8-8/10-10-10-0--0--0--0-8---8-8-8-8/10-10-10-
a-0--0--0--0-8---8-8-8-8/10-10-10-0--0--0--0-8---8-8-8-8/10-10-10-
d-0--0--0--0-8---8-8-8-8/10-10-10-0--0--0--0-8---8-8-8-8/10-10-10-
gtr. 2 mini solo
e-----------------------------------------------------------------
b-10----10---------------------13----13---------13----------------
g-12b~~-12b~~-12brp10----10----12br--10-12------------------------
d---------------------12----12------------------------------------
a-----------------------------------------------------------------
d-----------------------------------------------------------------
gtr. 1 (Fig. 3 cont.)
e-----------------------------------------------------------------
b-----------------------------------------------------------------
g-----------------------------------------------------------------
d-0--0--0--0-8---8-8-8-8/10-10-10-0--0-0-12--0-12--0-0-0-12-12-12-
a-0--0--0--0-8---8-8-8-8/10-10-10-0--0-0-12--0-12--0-0-0-12-12-12-
d-0--0--0--0-8---8-8-8-8/10-10-10-0--0-0-12--0-12--0-0-0-12-12-12-
repeat Fig. 3
that’s about all
i first heard this mp3, n it didn’t have n e lead parts......
the guy’s voice for a split second reminded me of MJK
trevor jones
[email protected]





Ваше мнение



Капча