-------------------------------------------------------------------------------
Fuck It (Dont Want You Back) - Eamon
-------------------------------------------------------------------------------
Tabbed by: Dwight James
Email:[email protected]
Tuning:Standard

Okay for starters this 'riff' is originally for keyboards but I tabed the chords
Pretty perfect SO PLEASE RATE!!
hold each chord for one whole beat as shown here 1..2..3..4 ok
e|-----|-----|-----|-----|----------------------------------
B|--8--|--3--|--1--|-----|----------------------------------
G|--8--|--3--|--3--|--3--|----------------------------------
D|--8--|--3--|--1--|--1--|----------------------------------
A|--6--|--5--|--3--|--3--|----------------------------------
E|-----|-----|-----|--4--|----------------------------------

here is the simple way to play it, it is just the bass part
in power chords pretty much and the one above Are the actual chords
that are being played on keyboard.
e|---------------------------------------------------
B|---------------------------------------------------
G|-8-------7---------5-------------------------------
D|-8-------8---------5---------6---------------------
A|-6-------5---------3---------6---------------------
E|-----------------------------4---------------------
credit to azlyrics.com for these
Whoa oh oh
Ooh hooh
No No No
[Verse 1:]
See, I dont know why I liked you so much
I gave you all, of my trust
I told you, I loved you, now thats all down the drain
Ya put me through pain, I wanna let u know how I feel
[Chorus:]
Fuck what I said it dont mean shit now
Fuck the presents might as well throw em out
Fuck all those kisses, they didn't mean jack
Fuck you, you hoe, I dont want you back
Fuck what I said it dont mean shit now
Fuck the presents might as well throw em out
Fuck all those kisses they didn't mean jack
Fuck you, you hoe, I dont want you back
[Verse 2:]
You thought, you could
Keep this shit from me, yeah
Ya burnt bitch, I heard the story
Ya played me, ya even gave him head
Now ya askin for me back
Ya just another act, look elsewhere
Cuz ya done with me
Fuck what I said it dont mean shit now
Fuck the presents might as well throw em out
Fuck all those kisses they didn't mean jack
Fuck you, you hoe, I dont want you back
Fuck what I said it dont mean shit now
Fuck the presents might as well throw em out
Fuck all those kisses they didn't mean jack
Fuck you, you hoe, I dont want you back
Oh oh
Uh huh yeah
Oh oh
Uh huh yeah
Oh oh
Uh huh yeah
Oh oh
Uh huh yeah
Ya questioned, did I care
You could ask anyone, I even said
Ya were my great one
Now its, over, but I do admit I'm sad.
It hurts real bad, I cant sweat that, cuz I loved a hoe
Fuck what I said it dont mean shit now
Fuck the presents might as well throw em out
Fuck all those kisses they didn't mean jack
Fuck you, you hoe, I dont want you back
Oh oh
Uh huh yeah
Oh oh
Uh huh yeah
Oh oh
Uh huh yeah
Oh oh
Uh huh yeah
[Until the end]


Ваше мнение



Капча