Eagle eye cherry
Shooting up in vain
Album desireless

intro
00:15
v~~~~~ v~~ v~~~~~ v~~
|--------------------------------|------------------------|
|--7-7-----5-5-------------------|--7-7-----5-5-----------|
|--------------9p7p5h7-----------|--------------9p7p5h7---|
|------------------------3s5-----|------------------------|
|--------------------------------|------------------------|
00:36~~~~~00:45 00:50~~~~~00:55
|---------------------------------------------------------|
|--6~~~~~~~~~~~~---------------6~~~~~~~~~~~~~~~-----------|
|---------------------------------------------------------|
|---------------------------------------------------------|
|---------------------------------------------------------|
|---------------------------------------------------------|
01:13 intro end
|---------------------------------------------------------|
|---------------------------------------------------------|
|--8~~~~~p6-----------------------------------------------|
|---------------------------------------------------------|
|---------------------------------------------------------|
|---------------------------------------------------------|
01:35
|---------------------------------------------------------|
|----3-------3-------3-------3-------3-------3------------|
|------0-------0-------0-------0-------0-------0----------|
|--0-------0-------0-------0-------0-------0--------------|
|5-------3-------2-------3-------5------3--------2--------|
|---------------------------------------------------------|
02:13
|---------------------------------------------------------|
|---------3-------3---3--------------6b8------------------|
|-----------0-------0-0-----------------------------------|
|-------0-------0-----0-----------------------------------|
|-----5-------3-------2-----------------------------------|
|---------------------------------------------------------|

|---------------------------------------------------------|
|----3-------3-------3-------3-------3-------3---3--------|
|------0-------0-------0-------0-------0-------0-0--------|
|--0-------0-------0-------0-------0-------0-----0--------|
|5-------3-------2-------3-------5------3--------2--------|
|---------------------------------------------------------|

|---------------------------------------------------------|
|----3-------3-------3-------3-------3-------3------------|
|------0-------0-------0-------0-------0-------0----------|
|--0-------0-------0-------0-------0-------0--------------|
|5-------3-------2-------3-------5------3--------2--------|
|---------------------------------------------------------|
2nd guitar
e|-----------------17b-15----------------------------------|
b|------------------------18-15----------------------------|
g|---------------------------------------------------------|

play to end
|--------------------------------|
|----3-------3-------3-------3---|
|------0-------0-------0-------0-|
|--0-------0-------0-------0-----|
|5-------3-------2-------3-------|
|--------------------------------|

this is the first tab I've written I think It came out well, it's a simple song but
hell I've only been playing for a couple months now. If anything is wrong with it
please I.M. me and tell me what u think is wrong. My screen name for AIM is ovation8686




Ваше мнение



Капча