------------------------------------------------------------
Boyz in the Hood-Dynamite Hack
------------------------------------------------------------
By: pukefarmer
This is my first tab and I don't know if I'm doing this right but I am pretty
sure that the tab itself is correct.
verse:
e|----------------------------|---------------------------
B|----------------------------|-------------------2-------
G|-------------------6--------|-----------2--------------2
D|-----------7--------------7-|-------2-------------------
A|-------7--------------------|4--------------4-----------
E|5--------------5------------|---------------------------
e|----------------------------|----------------------------
B|-------------------5--------|----------------------------
G|-----------7--------------7-|-----------8-------9------8-
D|-------7--------------------|-------7--------------------
A|5--------------5------------|6--------------6------------
E|----------------------------|----------------------------
e|----------------------------|-------------------3--------
B|-------------------7--------|-----------2--------------3-
G|-----------9--------------9-|-------2--------------------
D|-------7--------------------|3--------------3------------
A|7--------------7------------|----------------------------
E|----------------------------|----------------------------
e|-------------------3--------|----------------------------
B|-----------3--------------3-|-------------------7--------
G|-------3--------------------|-----------7--------------7-
D|4--------------2------------|-------7--------------------
A|----------------------------|5--------------5------------
E|----------------------------|----------------------------
During the verse let each note ring until the next measure.
repeat several times.
chorus:
e|----------------------------|----------------------------
B|----------------------------|----------------------------
G|----------------------------|----------------------------
D|7--------------7-----xx-----|4--------------4-----xx-----
A|7--------------7-----xx-----|4--------------4-----xx-----
E|5--------------5-----xx-----|2--------------2-----xx-----
e|----------------------------|----------------------------
B|----------------------------|----------------------------
G|4--------------4-----xx-----|----------------------------
D|4--------------4-----xx-----|2------2-------2-----22-----
A|2--------------2-----xx-----|2------2-------2-----22-----
E|----------------------------|0------0-------0-----00-----
this twice then:
e|----------------------------|----------------------------
B|----------------------------|----------------------------
G|----------------------------|7--------------7------------
D|7--------------7------------|7--------------7------------
A|7--------------7------------|5--------------5------------
E|5--------------5------------|----------------------------
e|----------------------------|-----------------------------
B|----------------------------|-----------------------------
G|----------------------------|-----------------------------
D|7---------------------------|-----------------------------
A|7---------------------------|-----------------------------
E|5--------------2b-----------|0----------------------------
abrupt stop let ring
Thats about the whole song. let me know what you think.




Ваше мнение



Капча