Dying Fetus
Schematics
Stop At Nothing
www.dyingfetus.com
Tabbed by Mike Kimball

Riff 1
||----[3x]---|-----------||-----------------
||--3--------|-----------||-----------------
||-----------|-----------||-----------------
||-----------|-----------||-----------------
||----3-4-3--|--4-5-4-3--||-2-3-----2-3-----
||----1-2-1--|--2-3-2-1--||-0-1-----0-1-----


Riff 2
-----------------------------------
-----------------------------------
-----------------------------------
-----------------------------------
--2-2-2-2-3-3-3-3-2-2-43-4/5-43--
--0-0-0-0-1-1-1-1-0-0-21-2/3-21--

Riff 3
------------------|------------------|-------------------
---[3x]-----------|-----[end 1]------|------[end 2]------
------------------|------------------|-------------------
--------------5---|------------------|------444-----555--
------------------|------------------|-------------------
--5---4---774-----|--1---3---2---1---|--111-----111------
[tr. pick...........................]

Riff 4
------------------|------------------|-------------------
---[3x]-----------|----[end 1-4]-----|------[end 2]------
------------------|------------------|-------------------
------------------|------------------|------444-----555--
--7---6---9---5---|--3---5---4---3---|-------------------
--5---4---7---3---|--1---3---2---1---|--111-----111------
[note: ending 4 slows down]

Riff 5
----------------------------------------------------------------
----------------------------------------------------------------
----------------------------------------------------------------
----------------------------------------------------------------
-2-4-3---2---3---5---4---2-4-3---4-3-2---2---2---4-3-2-4---2-5--
-0-2-1---0---1---3---2---0-2-1---2-1-0---0---0---2-1-0-2---0-3--

Riff 6
------------------------------------|-----------------------------------
------------------------------------|-----------------------------------
------------------------------------|--------[end 2, intro only]--------
------------------------------------|-----------------------------------
--6-5---3-4-3-6-5-------------------|-6-5-----5-4-----------------------
--4-3-0-1-2-1-4-3-0000112200002100--|-4-3-----3-2-----0000112200002100--

Riff 7
-------------------------------------------------------------------
-------------------------------------------------------------------
-------------------------------------------------------------------
-------------------------------------------------------------------
--6-5---3-4-3-6-5---3-4-3-5-4-6-5-5-4---3-4-3-6-5-----3/4-----4/5--
--4-3-0-1-2-1-4-3-0-1-2-1-3-2-4-3-3-2-0-1-2-1-4-3-0-0-1/2-0-0-2/3--

[then play riff 6 again]

Riff 8
-------------------|---------------------------------------------------|-----
------[4x]---------|--[2x]---------------------------------------------|-----
-------------------|---------------------------------------------------|-----
----------777------|--------------------------------------4h5p4--------|-----
--555--------------|--2h5p2-------3h6p3-------4h7p4-------------5p4----|--3--
------444-----444--|--------3p2h3-------4p3h4-------5p4h5-----------5--|--1--

Riff 9
---------------------------------------------------------------
---------------------------------------------------------------
---------------------------------------------------------------
---------------------------------------------------------------
--6-5-------3---6-5-----3-6-5-----------3-------5-------3-6-5--
--4-3---0-0-1---4-3-0-0-1-4-3---0-000-0-1p0-0-0-3p0-0-0-1-4-3--

[Repeat Riff 3]

[Repeat Riff 5 - end]




Ваше мнение



Капча