REDUCED TO SLAVERY - Dying Fetus - Destroy the Opposition (Japanese release)
Version 1.0 - November 2001
Transcribed by Lalith Vipulananthan
Tuning (Low to High) - C# F# B E
Intro
|-----------------|
|-----------------|
|-5-4-2-5-4-2-4---|
|-3-2-0-3-2-0-2---|
. . . . . . .
A Play 3 times
|---------------------------------------------|
|-7778----77--------7778----77----------------|
|-----1010--88775555----1010--5-4-2-5-4-2-4---|
|-----------------------------3-2-0-3-2-0-2---|
. . . . . . .
Fill 1
|---------------------------------------------|
|-7778----77--------7778----77----------------|
|-----1010--88775555----1010------------------|
|-----------------------------3-2-0-3-2-0-2---|
. . . . . . .
B1 Bass
|------------------------------------------------------------------|
|------------------------------------------------------------------|
|---------1---------------7-8--5-7---------1---------------3---3/5-|
|-0-3-2-0---3-2-3-0-3-2-0----------0-3-2-0---3-2-3-0-3-2-0---0-----|
|
| Guitars
|------------------------------------------------------------------|
|-------------------------9-10-7-9-------------------------5---5/7-|
|-------------------------7-8--5-7-------------------------3---3/5-|
|------------------------------------------------------------0-----|
.
Repeat B1
B2 Play 4 times
|------------------------------------------------------------------|
|---------3---------------9-10-7-9---------3---------------5---5/7-|
|-2-5-4-2-1-5-4-5-2-5-4-2-7-8--5-7-2-5-4-2-1-5-4-5-2-5-4-2-3---3/5-|
|-0-3-2-0---3-2-3-0-3-2-0----------0-3-2-0---3-2-3-0-3-2-0---0-----|
. . . . . . . . . . . . . . . . . . . . . . . . . . . . .
C Play 4 times
|------------------------------------|
|-----Ah-----------------------------|
|-----2h3---4-3-4-3-8-----7-----6----|
|-000-------2-1-2-1-6---0-5---0-4----|
... . . . . . .
D1 [1,3] [2] [4]
|-------------------------------------------------|-----------------|-----------------|
|-------------------------------------------------|-----------------|-----------------|
|-------------------------------------------------|-3/5---6-----65-|-3-----6-----6---|
|-000-000-0-000-0-000-0-0-0-0-0-0-000-000-0-000-0-|-1/3-0-4---0-43-|-1---0-4---0-4---|
... ... . ... . ... . . . . . . ... ... . ... . . . . .
D2 [1,3] [2] [4]
|-------------------------------------------------|-----------------|-----------------|
|-------------------------------------------------|-----------------|-----------------|
|-------------------------------------------------|-3/5---6-----65-|-3-----6-----6---|
|-0-0-0-0-0-0-0-0-0-0-0-0-0-1-1-1-0-0-0-0-0-0-0-0-|-1/3-0-4---0-43-|-1---0-4---0-4---|
. . . . . . . . . . . . . . . . . . . . . . . . . . . .
Repeat C x 4, D1, D2
E Play 4 times
|------------------------------------------------------------------|
|---------------------------------------------------5--------------|
|---------1---------3---------------------1-------6-3-6---5-6-5----|
|-111-2-1---3-2-1-4---4-4-3-4-3-3-111-2-1---3-2-1-4---4---3-4-3----|
... . . . . . . . . . . . . . . ... . . . . . . . . . .
Guitar 1 - Left
|------------------------------------------------|
|--------------------------------------------5-4-|
|---22------2h3p277776-6-6-6-3-3-3-3-5-6-5-6-3-2-|
|-44--000000---------4-4-4-4-1-1-1-1-3-4-3-4-----|
| . . . . . . . . . .
| Guitar 2 - Right
|------------------------------------------------|
|--------------------------------------------5-4-|
|--------------------6-------3-------5-6-5-6-3-2-|
|--------------------4-------1-------3-4-3-4-----|
. . . . . .
F (both guitars) Play 3 times
|---------------------------------------------------|
|---------------------------------------------------|
|---22------2h3p277776-6-6-6-3-3-3-3-5-6-5-6-3tr6-2-|
|-44--000000---------4-4-4-4-1-1-1-1-3-4-3-4--------|
. . . . . . . . . .
G1
|-----------------------------------------------|
|-----------------------------------------------|
|-5-6-5-6-3tr6-2-5-6-5-6-3tr6-2-5-------3-------|
|-3-4-3-4--------3-4-3-4--------3-0-0-0-1-0-0-0-|
. . . . . . . . . . . . . .
G2
|-------------------------------------------------------------|
|-----------------------------------------------------5-4-----|
|-5-6-5-6-3tr6-2-5-6-5-6-3tr6-2-5-6-5-6-3tr6-2-3tr6-2-3-2-6-6-|
|-3-4-3-4--------3-4-3-4--------3-4-3-4-------------------4-3-|
. . . . . . . . . . . . . . . .
Guitar 1 - Left
|-----------------------------------------------------------------|
|-----------------------------------------------------------------|
|-6-5-8---6-5-8-------------------6-5-8---6-5-8-----------8-9-6-8-|
|-4-3-6---4-3-6---0-0-0-0-000-000-4-3-6---4-3-6---000-000-6-7-4-6-|
| . . . . . . . . ... ... . . . . ... ... . . . .
| Guitar 2 - Right
|-----------------------------------------------------------------|
|-----------------------------------------------------------------|
|-6---------------------------------------------------------------|
|-4---------------------------------------------------------------|
.
Guitar 1 - Left
|-----------------------------------------------------------------|
|-----------------------------------------------------------------|
|-6-5-8---6-5-8-------------------6-5-8---6-5-8-------------------|
|-4-3-6---4-3-6---0-0-0-0-000-000-4-3-6---4-3-6-------------------|
| . . . . . . . . ... ... . . . .
| Guitar 2 - Right
|-----------------------------------------------------------------|
|-----8-------8---------------------------------------------------|
|-6-5-6---6-5-6---------------------------------------------------|
|-4-3-----4-3-----------------------------------------------------|
. . . .
H (both guitars) Play 3 times
|-----------------------------------------------------------------|
|-----------------------------------------------------------------|
|-6-5-8---6-5-8-------------------6-5-8---6-5-8-----------8-9-6-8-|
|-4-3-6---4-3-6---0-0-0-0-000-000-4-3-6---4-3-6---000-000-6-7-4-6-|
. . . . . . . . ... ... . . . . ... ... . . . .

Outro
|---------------------------------------------------------------|
|---------------------------------------------------------------|
|-6-5-8---6-5-8-------------------6-5-8---6-5-8-----------8-9-8-|
|-4-3-6---4-3-6---0-0-0-0-000-000-4-3-6---4-3-6---000-000-6-7-6-|
. . . . . . . . ... ... . . . . ... ... . . .
The End!
----------------------------------------------------------
Lalith Vipulananthan
Singularity Metal Tab




Ваше мнение



Капча