--Check out Death8699.com for more Metal tablature--
Dying Fetus - Praise The Lord (Opium Of The Masses)
From the Album DESTROY THE OPPOSITION
Copyright 2000 RELAPSE RECORDS
Version 1.0 - APRIL 2002
Tabbed by: Sean Beasley
Tablature Notation:
/or s=slide
h=hammer-on
p=pull-off
t=tap
tr…=tremelo pick
()=number of times
Tuning: C# [C#,G#,E,B,F#,C#]
--Praise the Lord--
Part 1 (3 times)
|--------------------(3x)-|-----------(2x)---|
|-------------------------|------------------|
|-------------------------|------------------|
|------4-5----------------|------------------|
|-4-3--2-3--4-3-4---5-4-3-|-2-4-3-2—-4-3-2-2-|
|-2-1-------2-1-2---3-2-1-|-0-2-1-0—-2-1-0-0-|
Part 2
|---------------------(Riff-a-3x)---|
|-----------------------------------|
|-----------------------------------|
|-----------------------------------|
|-3--h-h-h---t-s—-s—-s—-s—-p-p-p-p--|
|-1---3-5-6—-12/1312/1312-6-5-3-0-|
|---------------------------------------------------|
|---------------------------------------------------|
|---------------------------------------------------|
|---------------------------------------------------|
|-h------t-s-----------p----------------------------|
|--5-7-8—14/1514/1514-8-7-5-0---------------------|
|-------------------------------|----(Riff-a-2x}----|
|-------------------------------|-------------------|
|-------------------------------|-------------------|
|-------------------------------|-------------------|
|-h------t-s-----------p--------|-------------------|
|--3-5-6-12/1312/1312-6-5-3-0-|-------------------|
|-1st-ending----------------------------------------|
|---------------------------------------------------|
|---------------------------------------------------|
|-t-p-h-p-p---t-p-h-p-p----tp-h-p-p----t-p-h-p-p----|
|-12-5—8-5-0—-11-4-7-4-0---9-2-5-2-0---10-3-6-3-0---|
|---------------------------------------------------|
|-2nd-ending-----------------------------Part-2-(3x)|
|---------------------------------------------------|
|--s-------s-------s-------s------------------------|
|-6/7-----5/6-----4/5-----5/6-----------------------|
|-8/9-----7/8-----6/7-----7/8-----------------------|
|-----0-0-----0-0-----0-0---------------------------|

Part 3 Pt3 (2x)
|-------------(2x)----------------------(2x)-|------|
|--------------------------------------------|------|
|--------------------------------------------|------|
|----------------------------------7---------|------|
|------------------------7-10-9-10---10-9-10-|------|
|-0-1-3-1-4-3-1-3----------------------------|------|
tr…………………………………… …………………………………………………

Part 4
|--------------------------------|-------------------|
|--------------------------------|-------------------|
|--------------------------------|-------------------|
|--------------------------------|-------------------|
|-3-5-3-6-3-5-3-6-3-5-3-6-3-5-3-6|t-p-h-h---t-p-h-h--|
|-1-3-1-4-1-3-1-4-1-3-1-4-1-3-1-4|13-6-8-10-13-6-8-10|
|----------------------------------------------------|
|----------------------------------------------------|
|-----------t-p-h-h-----------------------t-p-h-h----|
|-t-p-h-h---13-6-8-10-t-p-h-h---t-p-h-h---13-6-8-10--|
|-13-6-8-10-----------13-6-8-10-13-6-8-10------------|
|----------------------------------------------------|
|----------------------------------------------------|
|-t-p-h-h--------------------------------------------|
|-13-6-8-10-------------------------------t-p-h-h----|
|-------------------------------t-p-h-h---13-6-8-10--|
|-----------t-p-h-h---t-p-h-h---13-6-8-10------------|
|-----------13-6-8-10-13-6-8-10----------------------|
|-----------------------------------Part-4-(4x)------|
|----------------------------------------------------|
|---------------------t-p-h-h---8--------------------|
|-t-p-h-h---t-p-h-h---13-6-8-10----------------------|
|-13-6-8-10-13-6-8-10--------------------------------|
|----------------------------------------------------|
|---------|---------------------------|-------------|
|-Part-3--|---------Riff-b------------|-------------|
|---------|---------------------------|-------------|
|--(3x)---|---------------------------|-------------|
|---------|-2-3-5—-2-2—-3-6---2-2-2-2-|-------------|
|---------|-0—1-3—-0-0—-1-4---0-0-0-0-|-------------|
|-------------------------|-----------|-------------|
|---------Riff-c----------|---Riff-b--|---Riff-c----|
|-------------------------|-----------|-------------|
|-------------------------|----(3x)---|-------------|
|-2-3-5—-2-2—-3-6---2-2-2-|-----------|-------------|
|-0-1-3—-0-0—-1-4---0—0-0-|-----------|-------------|
|-----------|----------------------|---------6-9-6--|
|---Riff-b--|---------------(4x)---|--------7-----7-|
|----(4x)---|--------------------3-|-------7-------7|
|-----------|-------3-3/6-5--------|----------------|
|-----------|-2-3-2-x-x-x-x—-2-3---|-6-9-6----(4x)--|
|-----------|-0—1—0—1—1/4-3—-0-1---|---------riff-d-|
|----------8-11-8-----|-14-12-11----------14-12-11--|
|---------9------9----|----------14-12-11-----------|
|--------9--------9---|-----------------------------|
|---------------------|-----------------------------|
|-8-11-8--------(2x)--|-----------------------------|
|--------------Riff-e-|-----------------------------|
|----------14-12-11---------------------------------|
|-14-12-11----------14-12-11------------------------|
|----------------------------14-12-11---------------|
|-------------------------------------14-12-11------|
|---------------------------------------------------|
|---------------------------------------------------|
|--------|--------|-14-12-11----------17-15-14------|
|--------|--------|----------14-12-11---------------|
|-Riff-d-|-Riff-e-|---------------------------------|
|--(4x)--|--(2x)--|---------------------------------|
|--------|--------|---------------------------------|
|--------|--------|--Part-5-------------------------|
|----------14-12-11---------------------Part-5—(3x)-|
|-17-15-14----------14-12-11------------------------|
|----------------------------14-12-11---------------|
|-------------------------------------14-12-11------|
|---------------------------------------------------|
|---------------------------------------------------|
|-----------------|-----------------|--back-to-the--|
|-------(3x)------|-----------------|---beginning---|
|-----------------|-----------------|---------------|
|---------3-------|-----------------|---------------|
|-3/7-5-3-1-5-3-4-|-3/7-3-5-6-5-6-5-|---------------|
|-1/5—3-1---3-1-2-|-1/5—1-3-4-3-4-3-|---------------|
--Check out Death8699.com for more Metal tablature--




Ваше мнение



Капча