--Check out Death8699.com for more Metal tablature--
Dying Fetus - Pissing in the Mainstream
From the Album DESTROY THE OPPOSITION
Copyright 2000 RELAPSE RECORDS
Version 1.0 - APRIL 2002
Tabbed by: Sean Beasley
Tablature Notation:
/or s=slide
h=hammer-on
p=pull-off
t=tap
tr…=tremelo pick
()=number of times
Tuning: C# [C#,G#,E,B,F#,C#]
--Pissing in the Mainstream--
Part 1
|--------7-10-7------------------------------------|
|------8--------8---------9-12-9-------------------|
|----8------------7----10--------10----------------|
|-10----------------12-----------------------------|
|--------------------------------------------------|
|--------------------------------------------------|
|-------------------------10-14-10-----------------|
|-------11-14-11-------12----------12--------------|
|----12----------12—12----------------12-----------|
|-14-----------------------------------------------|
|--------------------------------------------------|
|---------------------------------------part-1-(4x)|

|part-2--------------------------------part-2-(4x)|
|-------------------------------------------------|
|-------------------------------------------------|
|-------------------------------------------------|
|-------------------------------------------------|
|-6-7-0-0-5-6-0-0-45-0-0-0-1-2-3-2-1-0------------|
tr……………………………………………………………………………………………

|-part-3-------------------------------------------|
|--------------------------------------------------|
|--------------------------------------------------|
|-3-------3-------3--------------------------------|
|-1-5-3-5-1-5-3-5-1-5-3-5—6------------------------|
|---3-1-3---3-1-3---3-1-3--------------------------|
|---------------part-3-(2x)-|----------------------|
|---------------------------|--------repeat--------|
|---------------------------|-----first-3-parts----|
|-3-------3-------3---------|----------------------|
|-1-5-3-5-1-5-3-5-1-5-3-5---|----------------------|
|---3-1-3---3-1-3---3-1-3-6-|----------------------|
|--------------------------------------------------|
|---------------------------------------------(8x)-|
|--------------------------------------------------|
|--------------------------------------------------|
|-2-8-9-2-7-8-2-6--5-6-5-2-4-5-4-------------------|
|-0-6-7-0-5-6-0-4--3-4-3-0-2-3-2-------------------|
|--------------------------------------------(4x)--|
|--------------------------------------------------|
|--------------------------------------------------|
|------------------------------------------4-3-----|
|-2-2-2-2-2-2-2-2---4-5-4------------------2—1-----|
|-0-0-0-0-0-0-0-0---2-3-2-0-0-0-0-0-0-0-0----------|
tr…………………………………
|--------------------------------------------------|
|--------------------------------------------(4x)--|
|-------------------2-3-5--------------------------|
|-------------3-4-6-------3-4-6--------------------|
|-------4-5-7-------------------4-5-7--------------|
|-5-6-8-------------------------------1-1-1-1------|
tr……………………………………………………………………………………………………………
|--------|-----------------------------------------|
|--------|-----------------------------------------|
|-part-2-|-----------------------------------------|
|--(4x)--|-3-------3-------3-------8---------------|
|--------|-1-5-3-5-1-5-3-5-1-5-3-5-6---------------|
|--------|---3-1-3---3-1-3---3-1-3-----------------|
--Check out Death8699.com for more Metal tablature--




Ваше мнение



Капча