This song is the most requisted song on the web, so have fun!
by the way the song is so easy, why didn't you get the song yourself transcribed
The tuning is B-E-A-D-F#-B
THis song is transcriped by Chris Dorsman
RiffA RiffB
|-------------|-------------------------------|------------------|
|-------------|-------------------------------|------------------|
|-------------|-------------------------------|------------------|
|-------------|-------------------------------|------------------|
|4-5-5-4-4-5-5|4/5-5-5-4/5-5-5-4/5-5-5-4/5-5-5|6--3---3--6--3---3|
|2-3-3-2-2-3-3|2/3-3-3-2/3-3-3-2/3-3-3-2/3-3-3|-----6---------6--|
4x(2 times through chorus and 2times verse)
|------------------|
|------------------|
|------------------|
|------------------|
|6--3---3--6--3---3|
|-----6---------6--|
RiffC Harm--| -----| 2x
|---------------------------|5-----------5----------| |---------------------------|--5-----------5--------|
|---------------------------|----5-----------5------|
|---------------------------|------X------------X---|
|4/6-9-6-X-4/6-9-6-X-4/6-9-6|-----------4----------4|
|2/4-7-4-X-2/4-7-4-X-2/4-7-4|-----------2----------2|
-----| -------| 2X
|-----------------------------------|5-----------5------------|
|-----------------------------------|--5------------5---------|
|-----------------------------------|----5-------------5------|
|-----------------------------------|-------X-------------X---|
|4/6-9-6-X-4/6-6-9-9-6-X-4/6-6-9-9-6|----------4-------------4| |2/4-7-4-X-2/4-4-7-7-4-X-2/4-4-7-7-4|----------2-------------2|
Than riffA and 2Times riffB and riffA again




Ваше мнение



Капча