Dying Fetus
Justifiable Homicide
Destroy the Opposition
www.dyingfetus.com
Tabbed by Sean Beasley and Mike Kimball

part 1 (2x)
----------------------------------------------------------------10h14t19p14h10---------------
--------------------------------------------------------------12--------------12-------------
------------------------------------------------------------12------------------12-----------
--------------------------5-------------------------------12----------------------12---------
--5-------4-----------3-------5---5-------4-------10h12h14--------------------------14p12p10-
--3-000-0-2-000-0-222---2---2-3-0-3-000-0-2-000-0--------------------------------------------

part 2 (4x)
--------------------------------------------------|-----------------|
--------------------------------------------------|-----------------|
--------------------------------------------------|-----------------|
--------------------------------------------------|-----------------|
--54-----7/8-----54-----43-----54-----7/8-----|-----------------|
--32-0-0-5/6-0-0-32-0-0-21-0-0-32-0-0-5/6-0-0-|-111-555-555-555-|

(4th ending)
----------------------------|
----------------------------|
----------------------------|
----------7-------6---------|
--5-------5-------4---------|
--3-----------------------5-|

-repeat parts 1 & 2

part 3
-----------------------------(3x)-|---------------------------------
----------------------------------|---------------------------------
----------------------------------|---------------------------------
----------------------------------|---------------------------------
--2---3---------7---7---6---3-4-3-|-666-----777-----666-----777-----
--0---1-0-1/--0-5-0-5-0-4-0-1-2-1-|-----1-1-----1-1-----1-1-----1-1-

part 4
------------------------------------------------------------------
------------------------------------------------------------------
------------------------------------------------------------------
----------5---------------4h5-------------------------------------
--3---------------------------4h5---------2-------3---2---0---2---
------2-------2---3---2-3---------0---0-------0-------------------
tr..................... tr.............................

part 5
--------------------------------------------------
--------------------------------------------------
--------------------------------------------------
--------------------------------------------------
----444444554-------4-----5-4-5-----444444554-----
--00222222332-----002-----3-2-3---00222222332-----

--end 1-----------|--end 2-----------|
------------------|------------------|
------------------|------------------|
------------------|------------------|
--8-7-6-7-6-5-6-5-|--2---4---5---4---|
--6-5-4-5-4-3-4-3-|--0---2---3---2---|

part 6
--------------------------------------------------
--------------------------------------------------
--------------------------------------------------
--------------------------------------------------
----4-4-4-554-4-4---4-4-4-5-4-5-7---4-4-4-554-4-4-
--002-2-2-332-2-2-002-2-2-3-2-3-5-002-2-2-332-2-2-

--end 1-----------|--end 2-----------|
------------------|------------------|
------------------|------------------|
------------------|------------------|
--8-7-6-7-6-5-6-5-|--2---4---5---4---|
--6-5-4-5-4-3-4-3-|--0---2---3---2---|

-repeat parts 5 & 6

interlude
-------------------------------------------------
-------------------------------------------------
-------------------------------------------------
-----------------------------------------5-------
--2--------------------------------------3---3---
--0------------------------------------------1---

part 7
----------------------------------------------------------
----------------------------------------------------------
----------------------------------------------------------
----------7---------------5---------------7---------------
--2---5---5-5-3-2---3---3-3-3---3-2---5-2-5-5-3-2---3---3-
--0---3-0---3-1-0---1-0-1---1-0-1-0---3-0---3-1-0---1-0-1-

--end 1---|--end 2---|
----------|----------|
----------|----------|
----------|----------|
--5---3---|--4-4-4-4-|
--3---1---|--2-2-2-2-|

-repeat part 1 & 2

part 8
--(starts with ending riff)--------
-----------------------------------
-----------------------------------
-----------------------------------
----------3-------87---4-----4/5--
--000-0-0-1---0-0-65-0-2---0-2/3--

-----------------------------(3x)--|----------------------------------
-----------------------------------|----------------------------------
-----------------------------------|----------------------------------
----------------3------------------|----------------------------------
--2---4-2-4-5-2-1-----4-2-4-5-4-3--|---------3-------87---4-----4/5--
--0---2-0-2-3-0-------2-0-2-3-2-1--|-000-0-0-1---0-0-65-0-2---0-2/3--

part 9 (slower)
-----------------------------(3x)--|----------------------------------
-----------------------------------|----------------------------------
-----------------------------------|----------------------------------
----------------3------------------|----------------------------------
--2---2---4/5-2-1-----4-2-4-5-4-3--|---------3---2-2-87---4-----4/5--
--0---0---2/3-0-------2-0-2-3-2-1--|-000-0-0-1---0-0-65-0-2---0-2/3--




Ваше мнение



Капча