Heres the tab to my favorite song from Dying Fetus's Killing on Adrenaline
album.Some of these riffs are kinda tricky, so listen to the cd.Let me know
What you think of the tab.If you have anything that you would like tabbed
email me.
Band:Dying Fetus
song:Intentional Manslaughter
album:Killing on Adrenaline
Tuning: Db-Gb-B-E-Ab-Db (every string 1 1/2 steps down)
P.M . . . - Palm Muting
H - Hammer on
P - pull off
P.H - Pinch Harmonic
^ - bend
Riff 1
|---------------------------------------| |----------------------------| |
|---------------------------------------| |----------------------------| |
|---------------------------------------|X 3|----------------| |
|99-88-66-99-88-66--77-66-44------------| |----------------------------| |X2
|----------------------------77-44------| |4-444-4--2-4-2--------------| |
|----------------------------------55| |2-222-2--0-2-0--------------| |
P.M.................................... . ... . . |

Riff 2
|-------------------------------------------------------------------------|
|-------------------------------------------------------------------------|
|-------------------------------------|
|-------------------------------------------------------------------------|
|4-44-2-4-2-----------------44444-2-4-2----------------4-44-2-4-2---------|
|2-22-0-2-0-----------------22222-0-2-0----------------2-22-0-2-0---------|
. . . . . . . . .
|----------------|
|----------------|
|----------------|
|----------------|X2
|44444-2-4-2--6/7|
|22222-0-2-0--4/5|
. . .
Riff 3
|-----------------------------|
|-----------------------------|
|-----------------------------|
|-----------------------------|
|----2/3-----2/3---55----66-77|
|2/3-----2/3----------44------|
.. .. .. ..
Riff 4
|---------------------------------------|
|---------------------------------------|
|---------------------------------------|
|-------6------------------7-7----------|
|4--3-4-4------------5--4--5-5----------|
|2--1-2----00-33-22--3--2-------00-22-00|
. . .. .. .. . .. .. ..
|---------------------------------------|
|---------------------------------------|
|---------------------------------------|
|-------6---------------------7-7-8-----|
|4--3-4-4------------5--4-5---5-5-6-----|
|2--1-2----00-33-22--3--2-3-------------|
. . .. .. .. . .
Riff 5
|------------------------------------------------------------------------------|
|----------------------------------------------------------------------------p.h
|-----------------------------------------------------------------------------3^
|----2-4-2------------------------------------2-4-2----------|
|2-4-0-2-0-4-4-2-----2-4-0-2-0-4-4-2----------------------|
|0-2-------2-2-0--------------------------0-2-------2-2-0----------------------|
. . . . . . . . . . . . . . . .
Repeat riff 3 X8
Repeat riff 4 X2(leads into the following riff:
|-----------------------------------------------------------------|
|-----------------------------------------------------------------|
|11~~~~~~~11~~~~~11~~~~~11----------------------------------------|
|10~~~~~~~10~~~~~10~~~~~10----9-8---------------------------------|
|9~~~~~~~~9~~~~~~9~~~~~~9-----7-6-9-8-----------------------------|
|8~~~~~~~~8~~~~~~8~~~~~~8---------7-6-(UGHHH!!!!)-----------------|
Heavy P.M _ _ _ _
4th time:
|---------------------| |----------------------------|
|---------------------| |----------------------------|
|---------------------| |-------------------------P.H|
|---------------------|x3 |--------------------------3^|
|6-5-33---3---3--3-5-6| |-------------------|
|4-3-11-1-1-1-1--1-3-4| |111----111----111-----111---|
. . . . . . ... ... ... ...
|------------------------------------------------------------------------
|------------------------------------------------------------------------
|------------------------------------------------------------------------
|------------------------------------------------------------------------
|6-5-33---3---3--3-5-6---6-5-33---3----6-5-6-5-3-5--6-5-33---3---3--3-5-6
|4-3-11-1-1-1-1--1-3-4---4-3-11-1-1-1--4-3-4-3-1-3--4-3-11-1-1-1-1--1-3-4
. . . . . . . . . . . .
|-----------------------|
|-----------------------|
|---------------------ph|
|----ph----ph----ph---5^|
|----3^----2^----3^-----|
|111---111---111---111--|
... ... ... ...
(n the next riff, you trem pick up the E string.Listen to the cd for the rhythm)
|----------------------------------------| |------------------------|
|----------------------------------------| |------------------------|
|----------------------------------------|X3 |8-----8--8---9---9---9--|
|-------------16------------------| |--7----7--7---8---8----8|
|(trem.Pick)---------------H--2---2------| |----6---6------7---7----|
|0////////14--------------2-4---4---4-2-0| |------------------------|
...........
|---------------------------------------------------------|
|---------------------------------------------------------|
|---------------------------------------------------------|
|----2-4-2-----2-4--------9-------2-4-2-----2-4-----------|
|2-4-0-2-0-4-4-0-2-4-2-2--7----2-40-2-0--4-40-2--4-2-2-5--|
|0-2-------2-2-----2-0-0-------0-2-------2-2-----2-0-0-3--|
. . . . . . . . . . . .. . . . . . . .
(bass by itself)
|--------------------------------------------------------|
|--------------------------------------------------------|
|--------------------------------------------------------|
|--------------------------------------------------------|
|7-5-3--------9-7-5---------3-6-5----------3-6-5-6-5-3---|
|5-3-1-000000-7-5-3-000000--1-4-3-000000---1-4-3-4-3-1---|
. . . . . . . . . . . . . . .
The rest of the song is just previous riffs repeated.
Ivan Munguia - Fetusshredder


Ваше мнение



Капча